Log in

One click and you are in

Login with Facebook Login with Google

Why sign up and log in

Guitar Tabs Explorer
LiL PEEP chords for Big city blues ukulele

Guitar chords with lyrics

  • Difficulty: Beginner
Tuning: G C E A (G C E A)

🎸 Intro:
C E Am F
     Charlie Shuffler on the beat
🎸 Verse 1:
       C
I just wanna see you smile
       E
I just wanna make you mine
       Am
We can spend time, smoke away the time
     F
We can go anywhere you ever wanted
            C
Anything you ever dreamed
                    E
I can make your dreams come true (Come true)
              Am
I'll be on my own, no crew (Crew)
                 F N.C.
Out here makin' these moves (Yeah yeah)
                  C
Singin' these big city blues (City, yeah)
                  E
I don't wanna think about you (Nah, nah)
               Am
Every time I think about you (You)
              F   N.C.
I swear I fall in love again (Damn)
             C
I remember everything you said
        E
Promise me it's real (Yeah)
       Am
Girl, I got a deal (Got a deal)
        F            C
You could be my girl if I could be your world
        E
Promise me it's real (Yeah)
       Am
Girl, I got a deal (Ayy)
        F N.C.         C   E
You could be my girl if I could be your world
          Am
Uh, uh, uh, uh, uh, uh
          F
Uh, uh, uh, uh, uh, uh

Cold Hart, Cold Hart

🎸 Verse 2:
C            E
 And we can leave this club
           Am
And we can get fucked up
            F
In the back of the Chevy
                     C
Girl, I felt your heart beatin' heavy for me (Woah)
                E
And I just wanna see you shine (Shine)
                 Am
Girl, you got stars for eyes (You do)
             F  N.C.
And she sweet like Texas tea
            C
With an ass from Tennessee
                E
And we can take the long way home
                Am
'Cause I don't wanna see you go
             F
Sittin' drinkin' whiskey, hopin' that you'll miss me
       C         E
Baby, say you do (Please say you do)
        Am
Uh, uh, uh, uh, uh, uh
        F
Uh, uh, uh, uh, uh, uh
       C
Maybe say you do


🎸 Outro:
            E  Am F
Charlie Shuffler on the beat


---------
STRUMMING

🎸 Intro:
  C                 E
A|-3-------3-----3---3-3---3---3-3-|-2-------2-----2---2-2---2---2-2-|
E|-0-------0-----0---0-0---0---0-0-|-4-------4-----4---4-4---4---4-4-|
C|-0-------0-----0---0-0---0---0-0-|-4-------4-----4---4-4---4---4-4-|
G|-0-------0-----0---0-0---0---0-0-|---------------------------------|
  D    D   U  U D  D  D U  D    D   U  U D  D  D U

  Am                F
A|-0-------0-----0---0-0---0---0-0-|-0-------0-----0---0-0---0---0-0-|
E|-0-------0-----0---0-0---0---0-0-|-1-------1-----1---1-1---1---1-1-|
C|-0-------0-----0---0-0---0---0-0-|-0-------0-----0---0-0---0---0-0-|
G|-2-------2-----2---2-2---2---2-2-|-2-------2-----2---2-2---2---2-2-|
  D    D   U  U D  D  D U  D    D   U  U D  D  D U

🎸 Verse 1: Lil Peep:
I just wanna see you smile
I just wanna make you mine
We can spend
  C                 E
A|-3-------3-----3---3-3---3---3-3-|-2-------2-----2---2-2---2---2-2-|
E|-0-------0-----0---0-0---0---0-0-|-4-------4-----4---4-4---4---4-4-|
C|-0-------0-----0---0-0---0---0-0-|-4-------4-----4---4-4---4---4-4-|
G|-0-------0-----0---0-0---0---0-0-|---------------------------------|
  D    D   U  U D  D  D U  D    D   U  U D  D  D U

time, smoke away the time
We can go anywhere you ever wanted
Anything you ever dreamed
  Am                F
A|-0-------0-----0---0-0---0---0-0-|-0-------0-----0---0-0---0---0-0-|
E|-0-------0-----0---0-0---0---0-0-|-1-------1-----1---1-1---1---1-1-|
C|-0-------0-----0---0-0---0---0-0-|-0-------0-----0---0-0---0---0-0-|
G|-2-------2-----2---2-2---2---2-2-|-2-------2-----2---2-2---2---2-2-|
  D    D   U  U D  D  D U  D    D   U  U D  D  D U

I can make your dreams come true (Come true)
I'll be on my own, no crew (Crew)
  C                 E
A|-3-------3-----3---3-3---3---3-3-|-2-------2-----2---2-2---2---2-2-|
E|-0-------0-----0---0-0---0---0-0-|-4-------4-----4---4-4---4---4-4-|
C|-0-------0-----0---0-0---0---0-0-|-4-------4-----4---4-4---4---4-4-|
G|-0-------0-----0---0-0---0---0-0-|---------------------------------|
  D    D   U  U D  D  D U  D    D   U  U D  D  D U

Out here makin' these moves (Yeah yeah)
Singin' these big city blues (City, yeah)
  Am                F N.C.
A|-0-------0-----0---0-0---0---0-0-|-0-------------------------------|
E|-0-------0-----0---0-0---0---0-0-|-1-------------------------------|
C|-0-------0-----0---0-0---0---0-0-|-0-------------------------------|
G|-2-------2-----2---2-2---2---2-2-|-2-------------------------------|
  D    D   U  U D  D  D U  D

I don't wanna think about you (Nah, nah)
Every time I think about you (You)
  C                 E
A|-3-------3-----3---3-3---3---3-3-|-2-------2-----2---2-2---2---2-2-|
E|-0-------0-----0---0-0---0---0-0-|-4-------4-----4---4-4---4---4-4-|
C|-0-------0-----0---0-0---0---0-0-|-4-------4-----4---4-4---4---4-4-|
G|-0-------0-----0---0-0---0---0-0-|---------------------------------|
  D    D   U  U D  D  D U  D    D   U  U D  D  D U

I swear I fall in love again (Damn)
I remember everything you said
  Am                F
A|-0-------0-----0---0-0---0---0-0-|-0-------------------------------|
E|-0-------0-----0---0-0---0---0-0-|-1-------------------------------|
C|-0-------0-----0---0-0---0---0-0-|-0-------------------------------|
G|-2-------2-----2---2-2---2---2-2-|-2-------------------------------|
  D    D   U  U D  D  D U  D

Promise me it's real (Yeah)
Girl, I got a
  C                 E
A|-3-------3-----3---3-3---3---3-3-|-2-------2-----2---2-2---2---2-2-|
E|-0-------0-----0---0-0---0---0-0-|-4-------4-----4---4-4---4---4-4-|
C|-0-------0-----0---0-0---0---0-0-|-4-------4-----4---4-4---4---4-4-|
G|-0-------0-----0---0-0---0---0-0-|---------------------------------|
  D    D   U  U D  D  D U  D    D   U  U D  D  D U

deal (Got a deal)
You could be my girl if I could be your
  Am                F
A|-0-------0-----0---0-0---0---0-0-|-0-------0-----0---0-0---0---0-0-|
E|-0-------0-----0---0-0---0---0-0-|-1-------1-----1---1-1---1---1-1-|
C|-0-------0-----0---0-0---0---0-0-|-0-------0-----0---0-0---0---0-0-|
G|-2-------2-----2---2-2---2---2-2-|-2-------2-----2---2-2---2---2-2-|
  D    D   U  U D  D  D U  D    D   U  U D  D  D U

world
Promise me it's real (Yeah)
Girl, I got a
  C                 E
A|-3-------3-----3---3-3---3---3-3-|-2-------2-----2---2-2---2---2-2-|
E|-0-------0-----0---0-0---0---0-0-|-4-------4-----4---4-4---4---4-4-|
C|-0-------0-----0---0-0---0---0-0-|-4-------4-----4---4-4---4---4-4-|
G|-0-------0-----0---0-0---0---0-0-|---------------------------------|
  D    D   U  U D  D  D U  D    D   U  U D  D  D U

deal (Ayy)
You could be my girl if I could be your
  Am                F
A|-0-------0-----0---0-0---0---0-0-|-0-------------------------------|
E|-0-------0-----0---0-0---0---0-0-|-1-------------------------------|
C|-0-------0-----0---0-0---0---0-0-|-0-------------------------------|
G|-2-------2-----2---2-2---2---2-2-|-2-------------------------------|
  D    D   U  U D  D  D U  D

world
Uh, uh, uh, uh
  C                 E
A|-3-------3-----3---3-3---3---3-3-|-2-------2-----2---2-2---2---2-2-|
E|-0-------0-----0---0-0---0---0-0-|-4-------4-----4---4-4---4---4-4-|
C|-0-------0-----0---0-0---0---0-0-|-4-------4-----4---4-4---4---4-4-|
G|-0-------0-----0---0-0---0---0-0-|---------------------------------|
  D    D   U  U D  D  D U  D    D   U  U D  D  D U

uh
Uh, uh, uh, uh, uh
Cold Hart, Cold Hart
  Am                F
A|-0-------0-----0---0-0---0---0-0-|-0-------0-----0---0-0---0---0-0-|
E|-0-------0-----0---0-0---0---0-0-|-1-------1-----1---1-1---1---1-1-|
C|-0-------0-----0---0-0---0---0-0-|-0-------0-----0---0-0---0---0-0-|
G|-2-------2-----2---2-2---2---2-2-|-2-------2-----2---2-2---2---2-2-|
  D    D   U  U D  D  D U  D    D   U  U D  D  D U


🎸 Verse 2:
And we can leave this club
And we can get fucked up
  C                 E
A|-3-------3-----3---3-3---3---3-3-|-2-------2-----2---2-2---2---2-2-|
E|-0-------0-----0---0-0---0---0-0-|-4-------4-----4---4-4---4---4-4-|
C|-0-------0-----0---0-0---0---0-0-|-4-------4-----4---4-4---4---4-4-|
G|-0-------0-----0---0-0---0---0-0-|---------------------------------|
  D    D   U  U D  D  D U  D    D   U  U D  D  D U

In the back of the Chevy
Girl, I felt your heart beatin' heavy for
  Am                F
A|-0-------0-----0---0-0---0---0-0-|-0-------0-----0---0-0---0---0-0-|
E|-0-------0-----0---0-0---0---0-0-|-1-------1-----1---1-1---1---1-1-|
C|-0-------0-----0---0-0---0---0-0-|-0-------0-----0---0-0---0---0-0-|
G|-2-------2-----2---2-2---2---2-2-|-2-------2-----2---2-2---2---2-2-|
  D    D   U  U D  D  D U  D    D   U  U D  D  D U

me (Woah)
And I just wanna see you shine (Shine)
Girl, you got stars for eyes (You do)
  C                 E
A|-3-------3-----3---3-3---3---3-3-|-2-------2-----2---2-2---2---2-2-|
E|-0-------0-----0---0-0---0---0-0-|-4-------4-----4---4-4---4---4-4-|
C|-0-------0-----0---0-0---0---0-0-|-4-------4-----4---4-4---4---4-4-|
G|-0-------0-----0---0-0---0---0-0-|---------------------------------|
  D    D   U  U D  D  D U  D    D   U  U D  D  D U

And she sweet like Texas tea
With an ass from Tennessee
  Am                F
A|-0-------0-----0---0-0---0---0-0-|-0-------0-----------------------|
E|-0-------0-----0---0-0---0---0-0-|-1-------1-----------------------|
C|-0-------0-----0---0-0---0---0-0-|-0-------0-----------------------|
G|-2-------2-----2---2-2---2---2-2-|-2-------2-----------------------|
  D    D   U  U D  D  D U  D    D

ssee
And we can take the long way home
'Cause I don't wanna see you go
  C                 E
A|-3-------3-----3---3-3---3---3-3-|-2-------2-----2---2-2---2---2-2-|
E|-0-------0-----0---0-0---0---0-0-|-4-------4-----4---4-4---4---4-4-|
C|-0-------0-----0---0-0---0---0-0-|-4-------4-----4---4-4---4---4-4-|
G|-0-------0-----0---0-0---0---0-0-|---------------------------------|
  D    D   U  U D  D  D U  D    D   U  U D  D  D U

Sittin' drinkin' whiskey, hopin' that you'll miss me
Baby, say you do (Please say you
  Am                F
A|-0-------0-----0---0-0---0---0-0-|-0-------0-----0---0-0---0---0-0-|
E|-0-------0-----0---0-0---0---0-0-|-1-------1-----1---1-1---1---1-1-|
C|-0-------0-----0---0-0---0---0-0-|-0-------0-----0---0-0---0---0-0-|
G|-2-------2-----2---2-2---2---2-2-|-2-------2-----2---2-2---2---2-2-|
  D    D   U  U D  D  D U  D    D   U  U D  D  D U

do)
Uh, uh, uh, uh, uh, uh
  C                 E
A|-3-------3-----3---3-3---3---3-3-|-2-------2-----2---2-2---2---2-2-|
E|-0-------0-----0---0-0---0---0-0-|-4-------4-----4---4-4---4---4-4-|
C|-0-------0-----0---0-0---0---0-0-|-4-------4-----4---4-4---4---4-4-|
G|-0-------0-----0---0-0---0---0-0-|---------------------------------|
  D    D   U  U D  D  D U  D    D   U  U D  D  D U


Uh, uh, uh, uh, uh, uh
Maybe say you do
  Am                F
A|-0-------0-----0---0-0---0---0-0-|-0-------0-----0---0-0---0---0-0-|
E|-0-------0-----0---0-0---0---0-0-|-1-------1-----1---1-1---1---1-1-|
C|-0-------0-----0---0-0---0---0-0-|-0-------0-----0---0-0---0---0-0-|
G|-2-------2-----2---2-2---2---2-2-|-2-------2-----2---2-2---2---2-2-|
  D    D   U  U D  D  D U  D    D   U  U D  D  D U


🎸 Outro:
Charlie Shuffler on the beat
  C                 E
A|-3-------3-----3---3-3---3---3-3-|-2-------2-----2---2-2---2---2-2-|
E|-0-------0-----0---0-0---0---0-0-|-4-------4-----4---4-4---4---4-4-|
C|-0-------0-----0---0-0---0---0-0-|-4-------4-----4---4-4---4---4-4-|
G|-0-------0-----0---0-0---0---0-0-|---------------------------------|
  D    D   U  U D  D  D U  D    D   U  U D  D  D U

  Am                F
A|-0-------0-----0---0-0---0---0-0-|-0-------0-----0---0-0---0---0-0-|
E|-0-------0-----0---0-0---0---0-0-|-1-------1-----1---1-1---1---1-1-|
C|-0-------0-----0---0-0---0---0-0-|-0-------0-----0---0-0---0---0-0-|
G|-2-------2-----2---2-2---2---2-2-|-2-------2-----2---2-2---2---2-2-|
  D    D   U  U D  D  D U  D    D   U  U D  D  D U
ⓘ Guitar chords for 'Big City Blues Ukulele' by LiL PEEP, a male hip-hop artist from Long Island, New York. LiL PEEP was born in 1996. He passed away in 2017.

Almost there ...

Sign in to get your own page with links to favourite songs and more. You are just one click away...

Login with Facebook Login with Google