Log in

One click and you are in

Login with Facebook Login with Google

Why sign up and log in

Guitar Tabs Explorer
Lil Nas X guitar tabs for Old town road remix

Guitar tabs with lyrics

Tuning: Standard (E A D G B E)

Key: A chord diagramBB

Difficulty: Intermediate

This tab is based on this fingerstyle cover:
https://www.youtube.com/watch v=x50H3gaGjj4
I tabbed it by watching the video, so I don't know if it's exactly correct, but it sounds mostly similar.

Chords
A chord diagramC majorC     - x 3 2 0 1 0:
A chord diagramCadd9Cadd9 - x 3 2 0 3 0:

A chord diagramA minorAm    - x 0 2 2 1 0:
A chord diagramAsus4Asus4 - x 0 2 2 3 0:

A chord diagramD/F#D/F#  - 2 x 0 2 3 x:
A chord diagramD7/F#D7/F# - 2 x 0 2 1 x:

F/E   - 0 x 3 2 1 0:
F6/E  - 0 x 3 2 3 0:

Most of the song follows this sequence of chord fingerings for each bar:
(A chord diagramC majorC & A chord diagramCadd9Cadd9) (A chord diagramA minorAm & A chord diagramAsus4Asus4) (A chord diagramD/F#D/F# & A chord diagramD7/F#D7/F#) (F/E & F6/E)



Intro:

e-|---------------------------------|-------------------------1-------|
B-|-2-------2-------3-------3-------|-3-------3-----------2-------2---|
G-|---------------------------------|-----------------0---------------|
D-|---------------------------------|---------------------------------|
A-|-0-------0-------3-------3-------|---------------------------------|
E-|---------------------------------|-2-------2-------0-------0-------|


Hook v1:

e-|-0---------------0---------------|---------------0-----------------|
B-|-----3---1---------3--1h3--------|-----3-------3---1---0---4\2-2-2-|
G-|-------------2-2------0----2-2p0-|---------------------------------| x2
D-|---------------------------------|---------------------------------|
A-|-0-------0-------3-------3-------|---------------------------------|
E-|---------------------------------|-2-------2-------0-------0-------|



Verse 1:

e-|-0-0-0---0---0-------------------|-----------------------0---------|
B-|-------3-----0---3-3-3-1-3-------|-3-3-3-1-3-------3-3-3---3p1-----|
G-|-----------------0-----------0---|-------------0-0-2-----------2p0-| x2
D-|---------------------------------|---------------------------------|
A-|-0-----------0---3-----------3---|---------------------------------|
E-|---------S---------------S-------|-2-------S---2---0-------0-------|



Bridge:

e-|-0-0-----0---3h5-----------------|---------------------------------|
B-|-----3-3---------3h5-3---3---1---|---------3-------2/3-1---0-------|
G-|-----------------0---0-----------|-----2-2-----2---1/2-2-------2---| x2
D-|---------------------------------|---0-----------------------------|
A-|-0---------------3---------------|---------------------------------|
E-|---------S---------------S-------|-2-------S-------0-------S-------|



Verse 2:

e-|-0-0-0---0---0-------------------|-----------------------0---------|
B-|-------3-----0---3-3-3-1-3-------|-3-3-3-1-3-------3-3-3---3p1-----|
G-|-----------------0-----------0---|-------------0-0-2-----------2p0-| x2
D-|---------------------------------|---------------------------------|
A-|-0-----------0---3-----------3---|---------------------------------|
E-|---------S---------------S-------|-2-------S---2---0-------0-------|



Bridge:

e-|-0-0-----0---3h5-----------------|---------------------------------|
B-|-----3-3---------3h5-3---3---1---|---------3-------2/3-1---0-------|
G-|-----------------0---0-----------|-----2-2-----2---1/2-2-------2---| x2
D-|---------------------------------|---0-----------------------------|
A-|-0---------------3---------------|---------------------------------|
E-|---------S---------------S-------|-2-------S-------0-------S-------|


Hook v2:

e-|-0---------------0---------------|---------------0-----------------|
B-|-----3---1---------3--1h3--------|-----3-------3---1---0---4\2-2-2-|
G-|-------------2-2------0----2-2p0-|---------------------------------| x2
D-|---------------------------------|---------------------------------|
A-|-0---------0-----3---------------|---------------------------------|
E-|---------S---------------S-------|-2-------S-------0-------0-------|



Verse 3:

e-|---------------------------------|---------------------------------|
B-|-------------------------1-------|---------------------------------|
G-|-0---2---0---2---0-0-2-2-----2---|-0-0-2-2-0-0-2-2-0---2---5---2---|
D-|---------------------------------|---------------------------------|
A-|-0-------0-------3-------3-------|---------------------------------|
E-|---------------------------------|-2-------2-------0-------0-------|

e-|-0---------------0---------------|-0-------------------------------|
B-|(1)3-3p1-3-3-3p1(3)3-3p1-1-------|(1)3-3p1-3-3-3p1-3-3-3p1-1-------|
G-|-----------------------------2---|-----------------------------2---|
D-|---------------------------------|---------------------------------|
A-|-0-------0-------3-------3-------|---------------------------------|
E-|---------------------------------|-2-------2-------0-------0-------|


Hook v3:

e-|-0-------------0-----------------|---------------3(3)--------------|
B-|-----3-----3p1-----3-1h3---------|-3---3-----3p1-----3---1-1---2-2-|
G-|---------------------0-----0---0-|-----0---0-----------------------|
D-|---------------------------------|---------------------------------|
A-|-0-----0---------3-----------3---|---------------------------------|
E-|---------S---------------S-------|-2-----2-S-------0-------S-------|

e-|---------------------------------|-----------------------------3---|
B-|-1---3---------1---3-1h3p1-------|(1)--0---0---0---0h1-----1-------|
G-|-----------2-2-----0-0-----0-2p0-|-----0---0-----2-----2-----------|
D-|---------------------------------|----(0)--------------------------|
A-|-0---------------3---------------|---------------------------------|
E-|---------S---------------S-------|-2-------S-------0-------S-------|


Outro:

e-|-------------------------3---5-5-|-----------------3---5---8---5---|
B-|-2-------2-------3-------3-------|-3-------3-----------------------|
G-|---------------------------------|---------------------------------|
D-|---------------------------------|---------------------------------|
A-|-0-------0-------3-------3-------|---------------------------------|
E-|---------------------------------|-2-------2-------0-------0-------|

e-|---------------------------------|---------------------------------|
B-|-2---2---2---2---3---3---3---3---|-3---3---3---3---3---3---3---3---|
G-|-2---0---2---0---2---0---2---0---|-2---0---2---0---2---0---2---0---|
D-|---------------------------------|---------------------------------|
A-|-0-------0-------3-------3-------|---------------------------------|
E-|---------------------------------|-2-------2-------0-------0-------|


***********************************

| /   Slide up
| \   Slide down
| h   Hammer-on
| p   Pull-off
| S   Slap (with thumb)
| (n) Ghost note

***********************************

Other versions of Old Town Road Remix

Old town road remixChords
Old town road remix (Ver. 2)Chords

Almost there ...

Sign in to get your own page with links to favourite songs and more. You are just one click away...

Login with Facebook Login with Google