Search tabs and chords

Search for song, artist or band

Log in

One click and you are in

Login with Facebook Login with Google

Why sign up and log in

Guitar Tabs Explorer
Lil Nas X bass tabs for Old town road

Bass tabs

Tuning: Standard (E A D G)

Key: F#

Difficulty: Novice


Intro + Verse 1:
G|---------------4------4-------------------6------6--|
D|--6-----6--------------------4------4---------------|
A|----------------------------------------------------|
E|----------------------------------------------------| x4


Chorus + Verse 2:
   1  +  2  +  3  +  4  +  1  +  2  +  3  +  4  +  1  +  2  +  3  +  4  +  1  +  2  +  3  +  4  +
G|-----------------------|-----------------------|-----------------------|-----------------------|
D|-----------------------|-----------------------|-----------------------|-----------------------|
A|-----------------------|-------2--------2--2---|-----------------------|-------4--------4-----4|
E|-4-----------------4---|-----------------------|-2-----------------2---|-----------------------| x10

(I got the horses in the back...)


Outro:

G|-----------------------------------------------------|
D|-----------------------------------------------------|
A|---------------2------2-------------------4-------4--|
E|--4-----4--------------------2------2----------------| x2

Other versions of Old Town Road

Old town road (Ver. 2)Bass tabs
Old town road (Ver. 3)Bass tabs

Almost there ...

Sign in to get your own page with links to favourite songs and more. You are just one click away...

Login with Facebook Login with Google