Log in

One click and you are in

Login with Facebook Login with Google

Why sign up and log in

Guitar Tabs Explorer
Lil Nas X bass tabs for Old town road (Ver. 3)

Bass tabs

Repeat this throughout whole song:

5 string:

G |-----------------|-----------------|-----------------|-----------------|
D |-----------------|-----------------|-----------------|-----------------|
A |-----------------|-----2-----2-2---|-----------------|-----------------|
E |-4-----------4---|-----------------|-2-----------2---|-----------2---2-|
B |-----------------|-----------------|-----------------|-----2-----------|
    1 & 2 & 3 & 4 &   1 & 2 & 3 & 4 &   1 & 2 & 3 & 4 &   1 & 2 & 3 & 4 &


4 string:

G |-----------------|-----------------|-----------------|-----------------|
D |-----------------|-----------------|-----------------|-----------------|
A |-----------------|-----2-----2-2---|-----------------|-----------------|
E |-4-----------4---|-----------------|-2-----------2---|-----0-----2---2-|
    1 & 2 & 3 & 4 &   1 & 2 & 3 & 4 &   1 & 2 & 3 & 4 &   1 & 2 & 3 & 4 &

Other versions of Old Town Road

Old town roadBass tabs
Old town road (Ver. 2)Bass tabs

Almost there ...

Sign in to get your own page with links to favourite songs and more. You are just one click away...

Login with Facebook Login with Google