Log in

One click and you are in

Login with Facebook Login with Google

Why sign up and log in

Guitar Tabs Explorer
Lil Nas X bass tabs for Montero call me by your name

Montero Call Me By Your Name bass tab by Lil Nas X

Lil Nas X bass tabs for Montero call me by your name

Bass tabs

Tuning: Drop D (D A D G)

No bass until 0:32


Verse 1:
...you dont even have to try...
G|-------------------------------------------------------|
D|-------------------------------------------1-----------|
A|---------------------------------------------4-2-4-2---|
D|-1-1--2-2---2-2--1-1--13\1-1--2-2---2-2--1-----------6-|
No bass on Pre-Chorus


Chorus:
Call me when you want...        Hmm, hmm, hmmm...
G|------------------------------------|---------------------------------|
D|------------------------------------|---------------------------------|
A|------------------------------------|---------------------1>----------|
D|-1-2--2-4-2--1---1-2--2-4-2--1--1-1-|-1L--x--2-2--x--1-1------x--2-2--|


Verse 2:
Ay, I wanna sell what you're... Ooh, why me...
G|-----------------------------|------------------------------|
D|-------------1---------------|------------------------------|
A|---------------1-------------|-------------------1----------|
D|-1--x--2--x------1--2---2----|-1-1--x--2-2--x--1----x--2-2--|

leave, and now I'm acting...
G|-----------------------------|
D|-----------------------------|
A|-----------------------------|
D|-x-1-1-2--x--2-2-1--x--1-1-2-|

No bass on Pre-Chorus

Chorus:
Call me when you want...    Call me by your name...
G|-----------------------------|---------------------------------|
D|-----------------------------|---------------------------------|
A|-----------------------------|---------------------1>----------|
D|-1-2--2-4-2--1---1-2--2-4-2--|-1L--x--2-2--x--1-1------x--2-2--|


Bridge:
If you want me, call me... Fuck it, let's ride...
G|-------------------------|-----------------------------|
D|-------------------------|-------------------1---------|
A|-------------------------|-----------------------------|
D|-1-2--2-4-2--1---1-2--2--|-1-1--x--2-2--x--1----x--2-2-|


Chorus:
Oh call me by your name...
G|-----------------------------------------|
D|-----------------------------------------|
A|---------------------1>------------------|
D|-1L--x--2-2--x--1-1------x--2-2--x--13\1-|

Ourto:
G|---------------------------|
D|-----------------------1---|
A|-------------------------1-|
D|-1-1--x--2-2-2--x--1-1-----|


************************************

| x  Dead note
| >  Accented note
| L Let ring
| /  Slide up
| \  Slide down

************************************

Almost there ...

Sign in to get your own page with links to favourite songs and more. You are just one click away...

Login with Facebook Login with Google