Log in

One click and you are in

Login with Facebook Login with Google

Why sign up and log in

Guitar Tabs Explorer
Lil Boom guitar tabs for Already dead omae wa mou (Ver. 2)

Guitar tabs

Tuning: Standard (E A D G B E)


Intro:

e|-----3---3-----3---3-----2---2-----2---2-----3---3-----3---3-----1---1-----|
B|-----3---3-----3---3-----3---3-----0---0-----3---3-----3---3-----1---1-----|
G|---------------------------------------------------------------------------|
D|--------------------------------1---1-----2---2------2---2---1--0---0------|
A|--3---3-----3---3-----2---2------------------------------------------------|
E|---------------------------------------------------------------------------|

e|----0---0------------------------------------------------------------------|
B|----0---0------------------------------------------------------------------|
G|---------------------------------------------------------------------------|
D|---------------------------------------------------------------------------|
A|---------------------------------------------------------------------------|
E|--3---3--------------------------------------------------------------------|

just Repeat That Throughout The Whole Song.

Other versions of Already Dead Omae Wa Mou

Already dead omae wa mouTabs

↓ Add and view comments below ↓

What do you think about this song and these tabs?

Add your comments, questions, rant or a thumbs up below.

Almost there ...

Sign in to get your own page with links to favourite songs and more. You are just one click away...

Login with Facebook Login with Google