Log in

One click and you are in

Login with Facebook Login with Google

Why sign up and log in

Guitar Tabs Explorer
Liily guitar tabs for Sold

Guitar tabs

Tuning: Standard (E A D G B E)


Intro:
e|-------------------------------------------|-------------------------------------------|
B|------------------12----------------12-----|------------------12-------------14--12----|
G|----------11-13-------------11---13----13--|----------11-13-------------11----------13-|
D|--11---14--------------11------------------|--11---14--------------11------------------| (x4)
A|-------------------------------------------|-------------------------------------------|
E|-------------------------------------------|-------------------------------------------|

Verse 1:
e|-------------------------------------------|-------------------------------------------|
B|------------------12----------------12-----|------------------12-------------14--12----|
G|----------11-13-------------11---13----13--|----------11-13-------------11----------13-|
D|--11---14--------------11------------------|--11---14--------------11------------------| (x4)
A|-------------------------------------------|-------------------------------------------|
E|-------------------------------------------|-------------------------------------------|


Chorus 1:
e|---------------------------------|---------------------------------|
B|---------------------------------|---------------------------------|
G|---------------------------------|---------------------------------|
D|--------------------2-------2----|--------------------2-------2----| (x3)
A|----------2---4---4---4---4---4--|----------2---4---4---4---4---4--|
E|--0---2-4------------------------|--0---2-4------------------------|

e|---------------------------------|---------------------------------|
B|---------------------------------|---------------------------------|
G|---------------------------------|---------------------------------|
D|--------------------2-------2----|--------------------2---2-4-2----|
A|----------2---4---4---4---4---4--|----------2---4---4---4-------4--|
E|--0---2-4------------------------|--0---2-4------------------------|


Verse 2:
e|-------------------------------------------|-------------------------------------------|
B|------------------12----------------12-----|------------------12-------------14--12----|
G|----------11-13-------------11---13----13--|----------11-13-------------11----------13-|
D|--11---14--------------11------------------|--11---14--------------11------------------| (x4)
A|-------------------------------------------|-------------------------------------------|
E|-------------------------------------------|-------------------------------------------|


Chorus 2:
e|---------------------------------|---------------------------------|
B|---------------------------------|---------------------------------|
G|---------------------------------|---------------------------------|
D|--------------------2-------2----|--------------------2-------2----| (x3)
A|----------2---4---4---4---4---4--|----------2---4---4---4---4---4--|
E|--0---2-4------------------------|--0---2-4------------------------|

e|---------------------------------|---------------------------------|
B|---------------------------------|---------------------------------|
G|---------------------------------|---------------------------------|
D|--------------------2-------2----|--------------------2---2-4-2----|
A|----------2---4---4---4---4---4--|----------2---4---4---4-------4--|
E|--0---2-4------------------------|--0---2-4------------------------|


Bridge:
e|---------------------------------------------------|---------------------------------------------------|
B|---------------------------------------------------|---------------------------------------------------|
G|--13p11-------13p11-------13p11-------13p11--------|--13p11-------13p11-------13p11-------13p11--------|
D|--------14p11-------14p11-------14p11-------14p11--|--------14p11-------14p11-------14p11-------14p11--|
A|---------------------------------------------------|---------------------------------------------------|
E|---------------------------------------------------|---------------------------------------------------|

e|---------------------------------------------------|---------------------------------------------------|
B|---------------------------------------------------|---------------------------------------------------|
G|--------11h13-------11h13-------11h13-------11h13--|--------11h13-------11h13-------11h13-------11h13--|
D|--11h14-------11h14-------11h14-------11h14--------|--11h14-------11h14-------11h14-------11h14--------|
A|---------------------------------------------------|---------------------------------------------------|
E|---------------------------------------------------|---------------------------------------------------|

e|---------------------------------------------------|---------------------------------------------------|
B|---------------------------------------------------|---------------------------------------------------|
G|--13p11-------13p11-------13p11-------13p11--------|--13p11-------13p11-------13p11-------13p11--------|
D|--------14p11-------14p11-------14p11-------14p11--|--------14p11-------14p11-------14p11-------14p11--|
A|---------------------------------------------------|---------------------------------------------------|
E|---------------------------------------------------|---------------------------------------------------|

e|---------------------------------------------------|---------------------------------------------------|
B|---------------------------------------------------|---------------------------------------------------|
G|--------11h13-------11h13-------11h13-------11h13--|--------11h13-------11h13-------11h13-------11h13--|
D|--11h14-------11h14-------11h14-------11h14--------|--11h14-------11h14-------11h14-------11h14--------|
A|---------------------------------------------------|---------------------------------------------------|
E|---------------------------------------------------|---------------------------------------------------|

e|---------------------------------|---------------------------------|
B|---------------------------------|---------------------------------|
G|---------------------------------|---------------------------------|
D|--------------------2-------2----|--------------------2-------2----| (x5)
A|----------2---4---4---4---4---4--|----------2---4---4---4---4---4--|
E|--0---2-4------------------------|--0---2-4------------------------|
                 PM                                PM
e|---------------------------------|---------------------------------------|
B|---------------------------------|---------------------------------------|
G|---------------------------------|---------------------------------------|
D|--------------------2-------2----|---------------11--11-14-11--11-14-11--|
A|----------2---4---4---4---4---4--|---------11-14-------------------------|
E|--0---2-4------------------------|--12--14-------------------------------|
                 PM


Chorus 3:
e|---------------------------------|---------------------------------|
B|---------------------------------|---------------------------------|
G|---------------------------------|---------------------------------|
D|--------------------2-------2----|--------------------2-------2----| (x3)
A|----------2---4---4---4---4---4--|----------2---4---4---4---4---4--|
E|--0---2-4------------------------|--0---2-4------------------------|

e|---------------------------------|---------------------------------|
B|---------------------------------|---------------------------------|
G|---------------------------------|---------------------------------|
D|--------------------2-------2----|--------------------2-------2----|
A|----------2---4---4---4---4---4--|----------2---4---4---4---4---4-4|
E|--0---2-4------------------------|--0---2-4------------------------|


************************************

| x   Dead note
| h   Hammer-on
| p   Pull-off
| PM  Palm mute

************************************

Almost there ...

Sign in to get your own page with links to favourite songs and more. You are just one click away...

Login with Facebook Login with Google