Log in

One click and you are in

Login with Facebook Login with Google

Why sign up and log in

Guitar Tabs Explorer
Ligabue tabs for Sulla mia strada

Guitar tabs with lyrics

SONG: Sulla Mia Strada
ARTIST: Ligabue
ALBUM: Miss Mondo'99
YEAR: 1999
TABBED BY: Fulvio Ferretti
 

INTRO (CHITARRA1)
Va suonato nell'intro, negli intermezzi e nel finale da chitarra2.
 
e|---0--0-0-0--0--0--0--0--|
b|--10-10-9-9-10-10-12-12--|
g|-------------------------|quattro
d|-------------------------| volte
a|-------------------------|
A chord diagramE MajorE|-------------------------|
 
RIFF1 (CHITARRA1)
Va suonato dopo l'intro, sotto il ritornello e nel finale.
 
e|------------------------------------------------------------------------|
b|-10-9-9------9-7-9-7-9-10-9-9-----9-7-9-7-9/12---12-12-----10-9-9---9-9-|
g|--------9-9-------------------9-9-------------9-9------9-9-------9-9----|
d|------------------------------------------------------------------------|
a|------------------------------------------------------------------------|
A chord diagramE MajorE|------------------------------------------------------------------------|
 
RIFF2 (CHITARRA1)
Va suonato durante la prima, la seconda e la terza strofa.
 
e|--0--4-------------0--0-|
b|--0--4-----2--2--1--1---|
g|--1--4--4--2------------|
d|--2--2-----2------------|
a|--2--------0------------|
A chord diagramE MajorE|--0---------------------|
 
RIFF3 (CHITARRA1)
Va suonato durante il bridge.
 
e|---7------7------7------7------7------7----7-5------7---|
b|-7---7--7---7--5---5--5---5--7---7--7---7------5--5---5-|
g|--------------------------------------------------------|
d|--------------------------------------------------------|
a|--------------------------------------------------------|
A chord diagramE MajorE|--------------------------------------------------------|
 
RIFF4 (CHITARRA2)
Va suonato durante la seconda e la terza strofa strofa.
 
e|-5-5-x-5-5-x-5-5-x-5-5-x-7-7-x-7-7-x-7-7-x-7-7-x-5-5-x-5-5-x-5-5-x-5-5-|
b|-5-5-x-5-5-x-5-5-x-5-5-x-9-9-x-9-9-x-9-9-x-9-9-x-5-5-x-5-5-x-5-5-x-5-5-|
g|-6-6-x-6-6-x-5-5-x-5-5-x-9-9-x-9-9-x-8-8-x-8-8-x-6-6-x-6-6-x-5-5-x-5-5-|
d|-7-7-x-7-7-x-7-7-x-7-7-x-9-9-x-9-9-x-9-9-x-9-9-x-7-7-x-7-7-x-7-7-x-7-7-|
a|-7-7-x-7-7-x-7-7-x-7-7-x-7-7-x-7-7-x-7-7-x-7-7-x-7-7-x-7-7-x-7-7-x-7-7-|
A chord diagramE MajorE|-5-5-x-5-5-x-5-5-x-5-5-x-----------------------x-5-5-x-5-5-x-5-5-x-5-5-|
 
RIFF5 (CHITARRA2)
Va suonato durante il bridge.
 
e|-------------------------|
b|-------------------------|
g|-------------------------|
d|-9-9/19-19---9-9/19-19---|
a|-9-9/19---19-9-9/19---19-|
A chord diagramE MajorE|-7-7/17------7-7/17------|
 

SOLO (CHITARRA2)
 
e|-----------------------------------------------------|
b|--9=====/10======\9=====/10=====\9=====/10-12-10-5---|
g|-----------------------------------------------------|
d|-----------------------------------------------------|
a|-----------------------------------------------------|
A chord diagramE MajorE|-----------------------------------------------------|
 

ACCORDI USATI
   A chord diagramE MajorE A chord diagramE7E7+ A  A chord diagramA minorAm A chord diagramBB
e|-0--4--0--0--2--|
b|-0--4--2--1--4--|
g|-1--4--2--2--4--|
d|-2--2--2--2--4--|
a|-2-----0--0--2--|
A chord diagramE MajorE|-0--------------|
 

PROGRESSIONE ACCORDI
 
STROFA A chord diagramE MajorE RITORNELLO
 
A chord diagramE MajorE|A chord diagramE7E7+|A chord diagramA augmentedA|A chord diagramA minorAm
 

BRIDGE
 
A chord diagramBB|A chord diagramA minorAm|A chord diagramBB|A chord diagramA minorAm
 
STRUTTURA CANZONE
 
PARTI                CHITARRA1         CHITARRA2
pre-intro             intro            silenzio

intro                 riff1            suona accordi, uno per battuta
strofa 1              riff2            suona un A chord diagramE MajorE ogni 4 battute
intermezzo            intro            suona accordi, uno per bettuta
strofa 2              riff2            riff3

bridge                riff4            riff5
ritornello            riff1            suona accordi, uno per battuta
intermezzo            intro            suona accordi, uno per battuta
strofa 3              riff2            riff3

bridge                riff4            riff5
ritornello            riff1            suona accordi, uno per battuta

solo                  silenzio         solo

bridge                riff4            riff5
ritornello            riff2            suona accordi, uno per battuta
finale                intro            riff1
 
🏷LegendA
E' stata usata la notazione musicale anglo-sassone, che si traduce così:
C=do
D=re
E=mi
F=fa
G=sol
A=la
B=si
 
/ slide su
\ slide giù
x muted string(si metteno le dita in posizione ma non si premono le
corde)
= tremolo
Have fun!!!!!!!!
 
Ferro

Other versions of Sulla Mia Strada

Sulla mia stradaChords

Almost there ...

Sign in to get your own page with links to favourite songs and more. You are just one click away...

Login with Facebook Login with Google