Log in

One click and you are in

Login with Facebook Login with Google

Why sign up and log in

Guitar Tabs Explorer
Lifehouse bass tabs for Just another name

Bass tabs

Tuning:  Stnadard 5 string bass
Tabbed by: jjhand


End of Verse: - Bass comes in
G|-----------------|
D|-----------------|
A|-7---7---7---7---|
E|-----------------|
B|-----------------|


Chorus:
G|-----------------|-----------------|-----------------|-----------------|
D|-----------------|-----------------|-----------------|-----------------|
A|-----------------|-----------------|-4---4---4---4---|-4---4---4-------|
E|-4---4---4---4---|-4---4---4---4---|-----------------|-------------4---|
B|-----------------|-----------------|-----------------|-----------------|

G|-----------------|-----------------|-----------------|------------------|
D|-----------------|-----------------|-----------------|------------------|
A|-----------------|-----------------|-2---2---2---2---|-6----------------|
E|-2---2---2---2---|-2---2---2---2---|-----------------|-----6---9-7--6---|
B|-----------------|-----------------|-----------------|------------------|

G|-----------------|-----------------|-----------------|-----------------|
D|-----------------|-----------------|-----------------|-----------------|
A|-----------------|-----------------|-4---4---4---4---|-4---4---4-------|
E|-4---4---4---4---|-4---4---4---4---|-----------------|-------------4---|
B|-----------------|-----------------|-----------------|-----------------|

G|-----------------|-----------------|
D|-----------------|-----------------|
A|-----------------|-6---6---6---6---|
E|-7---7---7---9---|-----------------|
B|-----------------|-----------------|



Verse 2: * Rest during empty measures
G|-----------------|-----------------|--------------|--------------|
D|-----------------|-----------------|--------------|--------------|
A|-----------------|-----------------|--------------|--------------|
E|-----------------|-----------------|--------------|--------------|
B|-9\--------------|-----------------|--------------|--------------|

G|-------------------|--------------------|-----------------------|-----------------|
D|------8h9----8h9-9-|-----9h11---9h11-11-|-----11h13----11h13-13-|-----------------|
A|-------------------|--------------------|-----------------------|-------8--8--8--8|
E|-------------------|--------------------|-----------------------|-----------------|
B|-------------------|--------------------|-----------------------|-----------------|


Chorus 2:
G|-----------------|-----------------|-----------------|-----------------|
D|-----------------|-----------------|-----------------|-----------------|
A|-----------------|-----------------|-4---4---4---4---|-4---4---4---4---|
E|-4---4---4---4---|-4---4---4---4---|-----------------|-----------------|
B|-----------------|-----------------|-----------------|-----------------|

G|-----------------|-----------------|-----------------|------------------|
D|-----------------|-----------------|-----------------|------------------|
A|-----------------|-----------------|-2---2---2---2---|-6----------------|
E|-2---2---2---2---|-2---2---2---2---|-----------------|-----6---9-7--6---|
B|-----------------|-----------------|-----------------|------------------|

G|-----------------|-----------------|-----------------|-----------------|
D|-----------------|-----------------|-----------------|-----------------|
A|-----------------|-----------------|-4---4---4---4---|-4---4---4-------|
E|-4---4---4---4---|-4---4---4---4---|-----------------|-------------4---|
B|-----------------|-----------------|-----------------|-----------------|

G|-----------------|-----------------|
D|-----------------|-----------------|
A|-----------------|-----------------|
E|-7---7---7---7---|-7---7---7-------|
B|-----------------|-----------------|


Bridge:
G|-----------------|-----------------|-----------------|-------------------|
D|-----------------|-----------------|-----------------|-------------------|
A|-11--11--11--11--|-11--11--11--11--|-10--10--10--10--|---------13--13----|
E|-----------------|-----------------|-----------------|-11--11---------11-|
B|-----------------|-----------------|-----------------|-------------------|

G|-----------------|-----------------|-----------------|-------------------|
D|-----------------|-----------------|-----------------|-------------------|
A|-11--11--11--11--|-11--11--11--11--|-10--10--10--10--|-------------------|
E|-----------------|-----------------|-----------------|-11---9---7---6----|
B|-----------------|-----------------|-----------------|-------------------|


Chorus 3:
G|-----------------|-----------------|-----------------|-----------------|
D|-----------------|-----------------|-----------------|-----------------|
A|-----------------|-----------------|-4---4---4---4---|-4---4---4-------|
E|-4---4---4---4---|-4---4---4---4---|-----------------|-------------2h4-|
B|-----------------|-----------------|-----------------|-----------------|

G|-----------------|-----------------|-----------------|------------------|
D|-----------------|-----------------|-----------------|------------------|
A|-----------------|-----------------|-2---2---2---2---|-6---6---6---6----|
E|-2---2---2---2---|-2---2---2---2---|-----------------|------------------|
B|-----------------|-----------------|-----------------|------------------|

G|-----------------|------------------|-----------------|-----------------|
D|-----------------|---------------4--|-----------------|-----------------|
A|-----------------|------------------|-2---2---1---1---|-----------------|
E|-0---0---0---0---|-2---2---2---2---2|-----------------|-4---4-------4---|
B|-----------------|------------------|-----------------|---------2-------|

G|-----------------|-----------------|-----------------|--------------------|
D|-----------------|-----------------|-----------------|/13---13---13-------|
A|-----------------|-----------------|-6---6---6---6/--|--------------------|
E|-----------------|-----------------|-----------------|--------------------|
B|-5---5---5---5---|-5---5---5---5---|-----------------|--------------------|


Final Verse:
G|---------------|-----------------|--------------|--------------|
D|---------------|-----------------|--------------|--------------|
A|---------------|-----------------|--------------|--------------|
E|---------------|-----------------|--------------|--------------|
B|---------------|-----------------|--------------|--------------|

G|-------------------|--------------------|-----------------------|-----------------|
D|------8h9----8h9-9-|-----9h11---9h11-11-|-----11h13----11h13-13-|-----------------|
A|-------------------|--------------------|-----------------------|-------8--8--8--8|
E|-------------------|--------------------|-----------------------|-----------------|
B|-------------------|--------------------|-----------------------|-----------------|


Final Chorus:
G|-----------------|-----------------|-----------------|-----------------|
D|-----------------|-----------------|-----------------|-----------------|
A|-----------------|-----------------|-4---4---4---4---|-4---4---4-------|
E|-4---4---4---4---|-4---4---4---4---|-----------------|-------------2h4-|
B|-----------------|-----------------|-----------------|-----------------|

G|-----------------|-----------------|-----------------|------------------|
D|-----------------|-----------------|-----------------|------------------|
A|-----------------|-----------------|-2---2---2---2---|-6----------------|
E|-2---2---2---2---|-2---2---2---2---|-----------------|-----6---9-7--6---|
B|-----------------|-----------------|-----------------|------------------|

G|-----------------|-----------------|-----------------|-----------------|
D|-----------------|-----------------|-----------------|-----------------|
A|-----------------|-----------------|-4---4---4---4---|-4---4---4-------|
E|-4---4---4---4---|-4---4---4---4---|-----------------|---------------4-|
B|-----------------|-----------------|-----------------|-------------2---|

G|-----------------|-----------------|-----------------|------------------|
D|-----------------|-----------------|-----------------|------------------|
A|-----------------|-----------------|-2---2---2---2---|-6----------------|
E|-2---2---2---2---|-2---2---2---2---|-----------------|-----6---9-7--6---|
B|-----------------|-----------------|-----------------|------------------|

G|-----------------|-----------------|-----------------|-----------------|
D|-----------------|-----------------|-----------------|-----------------|
A|-----------------|-----------------|-4---4---4---4---|-4---4---4-------|
E|-4---4---4---4---|-4---4---4---4---|-----------------|-------------2h4-|
B|-----------------|-----------------|-----------------|-----------------|

G|-----------------|-----------------|-----------------|-----------------|
D|-----------------|-----------------|-----------------|-----------------|
A|-----------------|-----------------|-2---2---2---2---|-6---6---6-------|
E|-2---2---2---2---|-2---2---2---2---|-----------------|-------------6---|
B|-----------------|-----------------|-----------------|-----------------|

G|-----------------|-----------------|-----------------|-----------------|
D|-----------------|-----------------|-----------------|-----------------|
A|-----------------|-----------------|-4---4---4---4---|-4---4---4-------|
E|-4---4---4---4---|-4---4---4---4---|-----------------|-------------2h4-|
B|-----------------|-----------------|-----------------|-----------------|

G|-----------------|-----------------|
D|-----------------|-----------------|
A|-----------------|-----------------|
E|-2---2---2---2---|-2---2---2---2---|
B|-----------------|-----------------|


Ending:
G|-----------------|-----------------|-----------------|------------------|
D|-----------------|-----------------|-----------------|------------------|
A|-11--11--11--11--|-11--11--11--11--|-10--10--10--10--|------------------|
E|-----------------|-----------------|-----------------|-11--11--11--11---|
B|-----------------|-----------------|-----------------|------------------|

G|-----------------|-----------------|-----------------|------------------|----------|
D|-----------------|-----------------|-----------------|------------------|----------|
A|-11--11--11--11--|-11--11--11--11--|-10--10--10--10--|------------------|-11-------|
E|-----------------|-----------------|-----------------|-11--11--11--11---|----------|
B|-----------------|-----------------|-----------------|------------------|----------|


Key:
| / slide up
| \ slide down
| h hammer-on
| p pull-off
| ~ vibrato
| + harmonic
| x Mute note

Almost there ...

Sign in to get your own page with links to favourite songs and more. You are just one click away...

Login with Facebook Login with Google