Log in

One click and you are in

Login with Facebook Login with Google

Why sign up and log in

Guitar Tabs Explorer
Lifehouse bass tabs for Hanging by a moment

Bass tabs

verse 1

G ||---------------|
C#||---------------|x3
G#||---------------|
C#||---7/0----2/0--|



chorus 1

|--------------------|
|--------------------|
|--2--0--5---2--0----|x2
|------------------4-|


verse 2

|----------------------------------|--------------------------------|
|----------------------------------|--------------------------------|
|----------------------------------|--------------------------------|x3
|-0--0---5--7/0--0-0-0-0-0--7/9/7/9|-0--0---5--7/0--0-0-0-0-0--5-4-5|


chorus 2

|---------------------------------|-------------------------------|
|-----------------------5-4-------|-------------------------------|
|--2-2-2-2-2--0--5-5-5------5-0---|-2-2-2-2---5-7-5---------------|
|---------------------------------|-----------------4-5---4-7-4-7-|x4


Bridge

|----------------|    |----------------|
|----------------|    |----------------|
|----------------|x2   |----------------|x2
|-0-0---0--4-5---|    |-0-0---0--5-7/0-|

|----------------|    |------------------|
|----------------|    |------------------|
|----------------|x2   |-0--2-2-2---------|x4
|-0-0---0--4-5---|    |------------------|

|---------|--------------|------------|
|---------|--------------|------------|
|---------|-----5-7/2----|----5-7/2---|
|-5-0-4-5-|-7-7----------|-7----------|x3

|---------|--------------|
|---------|--------------|
|---------|-----5-7/2----|
|-5-0-4-5-|-7-7----------|


verse 3

|--------------------|
|--------------------|
|--------------------|
|--7/0------2/0------|

|----------------------------------|--------------------------------|
|----------------------------------|--------------------------------|
|----------------------------------|--------------------------------|x2
|-0--0---5--7/0--0-0-0-0-0--7/9/7/9|-0--0---5--7/0--0-0-0-0-0--5-4-5|


chorus 3

|---------------------------------|-------------------------------|
|-----------------------5-4-------|-------------------------------|
|--2-2-2-2-2--0--5-5-5------5-0---|-2-2-2-2---5-7-5---------------|
|---------------------------------|-----------------4-5---4-7-4-7-|


|---------------------------------|-------------------------------|
|-----------------------5-4-------|-------------------------------|
|--2-2-2-2-2--0--5-5-5------5-0---|-2-2-2-2---5-7-5---------------|
|---------------------------------|-----------------4-5-----------|


|---------------------------------|-------------------------------|
|-----------------------5-4-------|-------------------------------|
|--2-2-2-2-2--0--5-5-5------5-0---|-2-2-2-2---5-7-5---------------|
|---------------------------------|-----------------4-5---4-7-4-7-|


|---------------------------------|-------------------------------|
|-----------------------5-4-------|-------------------------------|
|--2-2-2-2-2--0--5-5-5------5-0---|-2-2-2-2---5-7-5---------------|
|---------------------------------|-----------------4-5-----------|


|---------------------------------|-------------------------------|
|-----------------------5-4-------|-------------------------------|
|--2-2-2-2-2--0--5-5-5------5-0---|-2-2-2-2---5-7-5---------------|
|---------------------------------|-----------------4-5---4-7-4-7-|

|---------------------------------|-------------------------------|
|-----------------------5-4-------|-------------------------------|
|--2-2-2-2-2--0--5-5-5------5-0---|-2-2-2-2---5-7-5---------------|
|---------------------------------|-----------------4-5---4-7-4-7-|
ⓘ Bass guitar tab for 'Hanging By A Moment' by Lifehouse, a pop-rock band formed in 1996 from Los Angeles, USA. Lifehouse is known for their gritty rock/pop music.

Almost there ...

Sign in to get your own page with links to favourite songs and more. You are just one click away...

Login with Facebook Login with Google