Log in

One click and you are in

Login with Facebook Login with Google

Why sign up and log in

Guitar Tabs Explorer
Lifehouse bass tabs for Halfway gone

Bass tabs with lyrics

Album:     Halfway Gone

Tuning:    Standard
tabbed by:   jjhand



Intro: Guitar only


Verse 1:
G|-------------------------|-------------------------|-----------------|
D|-11-11-11-11-11-11-11-11-|-11-11-11-11-11-11-11-11-|-9-9-9-9-9-9-9-9-|
A|-------------------------|-------------------------|-----------------|
E|-------------------------|-------------------------|-----------------|
      "You were always hard to hold          So letting"

G|-------------------------|-------------------------|-------------------------|
D|/13-13-13-13-13-13-13-13-|-11-11-11-11-11-11-11-11-|-11-11-11-11-11-11-11-11\|
A|-------------------------|-------------------------|-------------------------|
E|-------------------------|-------------------------|-------------------------|
 "go ain't easy           I'm hanging on, you're growing cold"

G|-----------------|-----------------|-------------------------|
D|-4-4-4-4-4-4-4-4-|-9-9-9-9-9-9-9-9-|/13-13-13-13-13-13-13-13\|
A|-----------------|-----------------|-------------------------|
E|-----------------|-----------------|-------------------------|
     "While my mind is leaving"


Prechorus:
G|-----------------|-----------------|-------------------------|
D|-7-7-7-7-7-7-7-7-|-9-9-9-9-9-9-9-9-|-11-11-11-11-11-11-11-11-|
A|-----------------|-----------------|-------------------------|
E|-----------------|-----------------|-------------------------|
 "Talk,  talk is cheap Give me your word      You can"

G|-------------------------|------------------------|
D|-------------------------|------------------------|
A|-12-12-12-12-12-12-12-12-|-12\-10\--9\--7\---4----|
E|-------------------------|------------------------|
 "keep                 'Cause I'm"



Chorus:
G|------------------|-------------------|-------------------|------------------|
D|------------------|-------------------|-------------------|------------------|
A|-4-4-4-4--4-4-4-4-|-------------------|-7-7-7-7--7-7-7-7--|------------------|
E|------------------|-5-5-5-5--5-5-5-5--|-------------------|-7-7-7-7--7-7-7-7-|
 "halfway gone, and I'm on my way and I'm feeling, feeling, feeling this way, 'Cause you're"

G|-------------------|------------------|------------------|------------------|
D|-------------------|------------------|------------------|------------------|
A|-4-4-4-4--4-4-4-4--|------------------|------------------|------------------|
E|-------------------|-5-5-5-5--5-5-5-5-|-0-0-0-0--0-0-0-0-|-7-7-7-7--7-7-7-7-|
 "halfway in, but don't take too long 'Cause I'm halfway gone, I'm halfway gone"

G|-----------------|-----------------|-----------------|----------------------|
D|-----------------|-----------------|-----------------|----------------------|
A|-4-4-4-4-4-4-4-4-|-----------------|-----------------|----------------------|
E|-----------------|-5-5-5-5-5-5-5-5-|-7-7-7-7-7-7-7-7-|-7-7-7/11-11-11/14-14-|
                   "Halfway gone, I'm halfway gone"


Verse 2:
G|-------------------------|-------------------------|-----------------|
D|-11-11-11-11-11-11-11-11-|-11-11-11-11-11-11-11-11-|-9-9-9-9-9-9-9-9-|
A|-------------------------|-------------------------|-----------------|
E|-------------------------|-------------------------|-----------------|
     "You got one foot out the door          And choking"

G|-------------------------|-------------------------|
D|/13-13-13-13-13-13-13-13-|-11-11-11-11-11-11-11-11\|
A|-------------------------|-------------------------|
E|-------------------------|-------------------------|
 "on the other            Always thinking"

G|-----------------|-----------------|-------------------------|
D|-4-4-4-4-4-4-4-4-|-9-9-9-9-9-9-9-9-|/13-13-13-13-13-13-13-13\|
A|-----------------|-----------------|-------------------------|
E|-----------------|-----------------|-------------------------|
 "something more      Is just around the corner"




Prechorus 2:
G|---9---9---9-----|---11--11--11-----|----13----13----13-------|
D|-7---7---7---7-7-|-9---9---9----9---|-11----11----11----11-11-|
A|-----------------|------------------|-------------------------|
E|-----------------|------------------|-------------------------|
 "Talk,  talk is cheap Give me your word      You can"


G|-------------------------|----------------------|
D|-------------------------|----------------------|
A|-12-12-12-12-12-12-12-12-|-12\-10\--9\--7\---4--|
E|-------------------------|----------------------|
 "keep                 'Cause I'm"


Chorus 2:
G|-----------------|-----------------|-----------------|-----------------|
D|-----------------|-----------------|-----------------|-----------------|
A|-4-4-4-4-4-4-4-4-|-----------------|-7-7-7-7-7-7-7\6-|-----------------|
E|-----------------|-5-5-5-5-5-5-5-5-|-----------------|-7-7-7-7-7-7-7-7-|
"halfway gone, and I'm on my way and I'm feeling, feeling, feeling this way, 'Cause you're"

G|-----------------|-----------------|-----------------|-----------------|
D|-----------------|-----------------|-----------------|-----------------|
A|-4-4-4-4-4-4-4-4-|-----------------|-----------------|-------------4-6-|
E|-----------------|-5-5-5-5-5-5-5-5-|-0-0-0-0-0-0-0-0-|-7-7-7-7-7-7-----|
 "halfway in, but don't take too long 'Cause I'm halfway gone, I'm halfway gone. If you"

G|-----------------|-----------------|-----------------|-----------------|
D|-----------------|-----------------|-----------------|-----------------|
A|-4-4-4-4-4-4-4-4-|-----------------|-7-7-7-7-7-7-7\6-|-----------------|
E|-----------------|-5-5-5-5-5-5-5-5-|-----------------|-7-7-7-7-7-7-7-7-|
 "want me out, then I'm on my way and I'm feeling feeling, feeling this way 'Cause you're "

G|-----------------|-----------------|-----------------|-----------------|
D|-----------------|-----------------|-----------------|-----------------|
A|-4-4-4-4-4-4-4-4-|-----------------|-----------------|-----------------|
E|-----------------|-5-5-5-5-5-5-5-5-|-0-0-0-0-0-0-0-0-|-7-7-7-7-7-7-7-7/|
 "halfway in, but don't take too long 'Cause I'm halfway gone, I'm halfway gone"

G|-----------------|-----------------|-----------------|-----------------|
D|-----------------|-----------------|-----------------|-----------------|
A|-----------------|-----------------|-7-7-7-7-7-7-7\6-|-------------4-6-|
E|-9-9-9-9-9-9-9-9-|-5-5-5-5-5-5-5-5-|-----------------|-7-7-7-7-7-7-----|
                 "I'm halfway gone, I'm halfway gone"

G|-----------------|-----------------|-----------------|------------------|
D|-----------------|-----------------|-----------------|------------------|
A|-4-4-4-4-4-4-4-4-|-----------------|-----------------|------------------|
E|-----------------|-5-5-5-5-5-5-5-5-|-7-7-7-7-7-7-7-7-|-7-7-7-7-7-7-7----|
                 "I'm halfway gone, I'm halfway gone"


Final Verse:
G|-------------------------|-------------------------|-----------------|
D|-11-11-11-11-11-11-11-11-|-11-11-11-11-11-11-11-11-|-9-9-9-9-9-9-9-9-|
A|-------------------------|-------------------------|-----------------|
E|-------------------------|-------------------------|-----------------|
 "Don't take too long              Don't take too long"

G|-------------------------|-------------------------|-----------------|
D|/13-13-13-13-13-13-13-13-|-11-11-11-11-11-11-11-11-|-----------------|
A|-------------------------|-------------------------|-9-9-9-9-9-9-9-9-|
E|-------------------------|-------------------------|-----------------|
           "'Cause I'm on my way           If you"

G|-----------------|------------------|
D|-----------------|------------------|
A|-7-7-7-7-7-7-6-4-|-------------6----|
E|-----------------|-7------9---------|
 "take too long       Cause I'm"



Final Chorus:
G|-----------------|-----------------|-----------------|-----------------|
D|-----------------|-----------------|-----------------|-----------------|
A|-4-4-4-4-4-4-6-7-|-----------------|-----------------|-----------------|
E|-----------------|-5-5-5-5-5-5-5-7-|-0-0-0-0-0-0-0-0-|-7-7-7-7-7-7-7-7-|
"halfway gone, and I'm on my way and I'm feeling, feeling, feeling this way, 'Cause you're"

G|-----------------|-----------------|-----------------|-----------------|
D|-----------------|-----------------|-----------------|-----------------|
A|-4-4-4-4-4-4-4-4-|-----------------|-----------------|-----------------|
E|-----------------|-5-5-5-5-5-5-5-5-|-0-0-0-0-0-0-0-0-|-7-7-7-7-7-7-7-7-|
 "halfway in, but don't take too long 'Cause I'm halfway gone, I'm halfway gone. If you"

G|-----------------|-----------------|-----------------|-----------------|
D|-----------------|-----------------|-----------------|-----------------|
A|-4-4-4-4-4-4-4-4-|-----------------|-7-7-7-7-7-7-7-7-|-----------------|
E|-----------------|-5-5-5-5-5-5-5-5-|-----------------|-7-7-7-7-7-7-7-7-|
 "want me out, then I'm on my way and I'm feeling feeling, feeling this way 'Cause you're "

G|-----------------|-----------------|-----------------|-----------------|
D|-----------------|-----------------|-----------------|-----------------|
A|-4-4-4-4-4-4-4-4-|-----------------|-----------------|-----------------|
E|-----------------|-5-5-5-5-5-5-5-5-|-0-0-0-0-0-0-0-0-|-7-7-7-7-7-7-7-7-|
 "halfway in, but don't take too long 'Cause I'm halfway gone, I'm halfway gone"




Ending:
G|-----------------|-----------------|-----------------|-----------------|
D|-----------------|-----------------|-----------------|-----------------|
A|-----------------|-----------------|-7-7-7-7-7-7-6-4-|-----------------|
E|-9-9-9-9-9-9-9-9-|-5-5-5-5-5-5-5-5-|-----------------|-7-7-7-7-7-7-7-7-|
              "'Cause I'm halfway gone, I'm halfway gone"

G|-----------------|-----------------|-----------------|------------|
D|-----------------|-----------------|-----------------|------------|
A|-4-4-4-4-4-4-4-4-|-----------------|-----------------|------------|
E|-----------------|-5-5-5-5-5-5-5-5-|-7-7-7-7-7-7-7-7-|-7----------|
              "'Cause I'm halfway gone, I'm halfway gone"


************************
Key:
| / slide up
| \ slide down
| h hammer-on
| p pull-off
************************
ⓘ Bass guitar tab for 'Halfway Gone' by Lifehouse, a pop-rock band formed in 1996 from Los Angeles, USA. Lifehouse is known for their gritty rock/pop music.

Almost there ...

Sign in to get your own page with links to favourite songs and more. You are just one click away...

Login with Facebook Login with Google