Log in

One click and you are in

Login with Facebook Login with Google

Why sign up and log in

Guitar Tabs Explorer
Lifehouse tabs for Gods lemonade

Guitar tabs

INTRO
			e|-------------------------|
			b|-------------------------|
			g|-------------------------|  Play this twice.
			d|-------------------------|
			a|-----0-2-------0-1-1-0---|
			e|-0-3-----0-0-3---------3-|

			e|---------------------|
			b|---------------------|
			g|---------------------|  Play this twice.
			d|-2-5-7-9-2-5-7-8-7-5-|
			a|-2-x-x-x-2-x-x-x-x-x-|
			e|-0-3-5-7-0-3-5-6-5-3-|





VERSE
			e|-------------------------|
			b|-------------------------|
			g|-------------------------|  Play this four times.
			d|-------------------------|
			a|-----0-2-------0-1-1-0---|
			e|-0-3-----0-0-3---------3-|




PRECHORUS
			e|-0-2-|
			b|-3-3-|
			g|-2-2-|  Play this four times.
			d|-0-0-|
			a|-----|
			e|-----|




CHORUS
			e|-------------|
			b|-------------|
			g|---4-5-9-7-5-|  Play this twice.
			d|-5-4-5-9-7-5-|
			a|-5-2-3-7-5-3-|
			e|-3-----------|

			e|-----------------|
			b|-----------------|
			g|-2-2---2-2---7-7-| Play this three times.
			d|-2-2---2-2---7-7-|
			a|-0-0---0-0---5-5-|
			e|-----------------|

			On the forth time:
			e|-------------------|
			b|-------------------|
			g|-2-2-x-x-2-2-x-x-7-| (Let x577xx ring)
			d|-2-2-x-x-2-2-x-x-7-|
			a|-0-0-x-x-0-0-x-x-5-|
			e|-------------------|





BREAK
			e|---------------------|
			b|---------------------|
			g|---------------------|  Play this four times.
			d|-2-5-7-9-2-5-7-8-7-5-|
			a|-2-x-x-x-2-x-x-x-x-x-|
			e|-0-3-5-7-0-3-5-6-5-3-|




PLAY IN THIS ORDER:

Intro

Verse

PreChorus

Chorus

Verse

PreChorus

Chorus

Chorus

Break

Break

PreChorus

Chorus

Chorus

Time took to figure out: 2 hrs.



I think this also sounds good for the other half of the chorus:


ALTERNATIVE CHORUS (2ND HALF)
			e|---------------------------|
			b|---------------------------|
			g|-2-2-x-x-2-2-x-x-7-7/6/5/2-|  Play this three times.
			d|-2-2-x-x-2-2-x-x-7-7/6/5/2-|
			a|-0-0-x-x-0-0-x-x-5-5/4/3/0-|
			e|---------------------------|

On the forth time:
			e|-------------------|
			b|-------------------|
			g|-2-2-x-x-2-2-x-x-7-| (Let x577xx ring)
			d|-2-2-x-x-2-2-x-x-7-|
			a|-0-0-x-x-0-0-x-x-5-|
			e|-------------------|

When you are doing the "slides" from 577 to 220 for the end, make sure you strum, NOT
slide. I put slide because in a way you are but its mostly strumming and sliding quickly
 You stay at the 466 and 355 for just like a half second then go down. It's very quick
and I think it adds a bit of style to it. It sounds nice.

I hope everyone likes this!!!!!
ⓘ Guitar tab for 'Gods Lemonade' by Lifehouse, a pop-rock band formed in 1996 from Los Angeles, USA. Lifehouse is known for their gritty rock/pop music.

Almost there ...

Sign in to get your own page with links to favourite songs and more. You are just one click away...

Login with Facebook Login with Google