Log in

One click and you are in

Login with Facebook Login with Google

Why sign up and log in

Guitar Tabs Explorer
Lifehouse bass tabs for First time

Bass tabs

For 5 string - no need to tune down.

G|----------------------|----------------------|----------------------|
D|----------------------|----------------------|----------------------|
A|-----------3333-5/6---|-----------3333-5/6---|-----------3333-5/6---|
E|-4444-6666------------|-4444-4444------------|-4444-6666------------|
B|----------------------|----------------------|----------------------|

|----------------------|----------------------|----------------------|
|----------------------|----------------------|----------------------|
|-----------3333-5/6---|-----------3333-5/6---|----------------6666--|
|-4444-6666------------|-4444-4444------------|-4444-6666------------|
|----------------------|----------------------|-----------4444-------|

|-----------------------------------|-----------------------------------|
|-----------------------------------|-3333333333333333------------------|
|-----------------------------------|-----------------------------------|
|-1111111111111111/4444444444444444-|-----------------/4444444444443444-|
|-----------------------------------|-----------------------------------|

|--------------------------------------|----------------------------------|
|--------------------------------------|----------------------------------|
|-66666666-55555555--------------------|-66666666-55555555----------------|
|-------------------11111111-4444-6666-|-------------------11111111-44-66-|
|--------------------------------------|----------------------------------|

|--------------------------------------|----------------------------------|
|--------------------------------------|----------------------------------|
|-66666666-55555555--------------------|-66666666-55555555----------------|
|-------------------11111111-4444-6666-|-------------------11111111-44-66-|
|--------------------------------------|----------------------------------|

|----------------------|----------------------|----------------------|
|----------------------|----------------------|----------------------|
|-----------3333-5/6---|-----------3333-5/6---|-----------3333-5/6---|
|-4444-6666------------|-4444-4444------------|-4444-6666------------|
|----------------------|----------------------|----------------------|

|----------------------|----------------------|----------------------|
|----------------------|----------------------|----------------------|
|-----------3333-5/6---|-----------3333-5/6---|-----------6665-6665--|
|-4444-6666------------|-4444-4444------------|-4444-6666------------|
|----------------------|----------------------|----------------------|

|-----------------------------------|------------------------------------|
|-----------------------------------|--3333333333333333-555555553/553/55-|
|-----------------------------------|------------------------------------|
|-1111111111111111/4444444444444444-|------------------------------------|
|-----------------------------------|------------------------------------|

|--------------------------------------|----------------------------------|
|--------------------------------------|----------------------------------|
|-66666666-55555555--------------------|-66666666-55555555----------------|
|-------------------11111111-4444-6666-|-------------------11111111-44-66-|
|--------------------------------------|----------------------------------|

|--------------------------------------|----------------------------------|
|--------------------------------------|----------------------------------|
|-66666666-55555555--------------------|-66666666-55555555----------------|
|-------------------11111111-4444-6666-|-------------------11111111-44-66-|
|--------------------------------------|----------------------------------|

|---------------------|---------------------|---------------------|
|---------------------|---------------------|---------------------|
|-8~~01~~03~~05~~07~8~|-8~~01~~03~~05~~07~8~|-8~~01~~03~~05~~07~8~|
|---------------------|---------------------|---------------------|
|---------------------|---------------------|---------------------|

|---------------------------|
|---------------------------|
|-8~~01~~03~~05~~07~8~~~6~~~|
|---------------------------|

Short Pause

|--------------|--------------|-------|
|--3/5----3/5--|--3/5----3/5--|-------|
|--------------|--------------|-------|
|--------------|--------------|-44-66-|
|--------------|--------------|-------|

|--------------------------------------|----------------------------------|
|--------------------------------------|----------------------------------|
|-66666666-55555555--------------------|-66666666-55555555----------------|
|-------------------11111111-4444-6666-|-------------------11111111-44-66-|
|--------------------------------------|----------------------------------|

|--------------------------------------|----------------------------------|
|--------------------------------------|----------------------------------|
|-66666666-55555555--------------------|-66666666-55555555----------------|
|-------------------11111111-4444-6666-|-------------------11111111-44-66-|
|--------------------------------------|----------------------------------|


|--------------------------------------|----------------------------------|
|--------------------------------------|----------------------------------|
|-77777777-66666666--------------------|-77777777-66666666----------------|
|-------------------22222222-5555-7777-|-------------------22222222-55-77-|
|--------------------------------------|----------------------------------|

|-------|
|-------|
|-------|
|-7~~~~~|
|-------|


End

ⓘ Bass guitar tab for 'First Time' by Lifehouse, a pop-rock band formed in 1996 from Los Angeles, USA. Lifehouse is known for their gritty rock/pop music.

Almost there ...

Sign in to get your own page with links to favourite songs and more. You are just one click away...

Login with Facebook Login with Google