Log in

One click and you are in

Login with Facebook Login with Google

Why sign up and log in

Guitar Tabs Explorer
Lifehouse tabs for Everybody is someone

Guitar tabs

e--2-0-2-0-2-3-2-2-0----2-0-2-0-2-3-2-2-0----|
b--3-3-3-3-3-3-3-3-3----1-1-1-1-1-1-1-1-1----|
g--2-2-2-2-2-2-2-2-2----2-2-2-2-2-2-2-2-2----|
d--------------------------------------------|
a--------------------------------------------|
e--------------------------------------------|

e--3--3-3--3-3--3-3-3----0--0-0--0-0--0-0-0--|
b--5--5-5--5-5--5-5-5----2--2-2--2-2--2-2-2--|
g--4--4-4--4-4--4-4-4----2--2-2--2-2--2-2-2--|
d--------------------------------------------|
a--------------------------------------------|
e--------------------------------------------|

ⓘ Guitar tab for 'Everybody Is Someone' by Lifehouse, a pop-rock band formed in 1996 from Los Angeles, USA. Lifehouse is known for their gritty rock/pop music.

Almost there ...

Sign in to get your own page with links to favourite songs and more. You are just one click away...

Login with Facebook Login with Google