Log in

One click and you are in

Login with Facebook Login with Google

Why sign up and log in

Guitar Tabs Explorer
Lifehouse bass tabs for Disarray

Bass tabs

Half Step Down

Gb|--------------------------------------------------------------------|
Db|--------------------------------------------------------------------|
Ab|------------------0000000000000000-2222222222222222-----------------|
Eb|-3333333333333333-----------------------------------333333333333321-|

|---------------------------------------------------------------------|
|---------------------------------------------------------------------|
|------------------0000000000000000-2222222222242042------------------|
|-3333333333333333-----------------------------------3333333333333333-|

|---------------------------------------------------------------------|
|---------------------------------------------------------------------|
|------------------0000000000000000-2222222222222222------------------|
|-3333333333333333-----------------------------------3333333333333333-|

|-----------------------------------|
|-----------------------------------|
|------------------0000000000000000-|
|-3333333333333333------------------|

|---------------------------------------------------------------------|
|---------------------------------------------------------------------|
|------------------0000000000000000-2222222222222000------------------|
|-3333333333333333-----------------------------------3333333333333333-|

|---------------------------------------------------------------------|
|---------------------------------------------------------------------|
|------------------0000000000000000-2222222222222000------------------|
|-3333333333333333-----------------------------------3333333333333333-|

|---------------------------------------------------------------------|
|---------------------------------------------------------------------|
|------------------0000000000000000-2222222222222222------------------|
|-3333333333333333-----------------------------------3333333333333333-|

|---------------------------------------------------------------------|
|---------------------------------------------------------------------|
|------------------0000000000000000-2222222222222222------------------|
|-3333333333333333-----------------------------------3333333333333333-|

|-----------------------------------|
|-----------------------------------|
|------------------0000000000000000-|
|-3333333333333333------------------|

|---------------------------------------------------------------------|
|---------------------------------------------------------------------|
|------------------0000000000000000-2222222222222000------------------|
|-3333333333333333-----------------------------------3333333333333333-|

|---------------------------------------------------------------------|
|---------------------------------------------------------------------|
|------------------0000000000000000-2~~~2~~~2~~~0~~~------------------|
|-3333333333333333-----------------------------------3~~~3~~~3~~~3~~~-|

|------------------------------------------|
|------------------------------------------|
|0~~~0~~~0~~~0~~~2222-2222-0-----------0~~~|
|----------------------------3333-3~~~-----|

|--------------------------------------------------------------------|
|--------------------------------------------------------------------|
|-/14141414141414141414141414141414-11111111111111111111111111111111-|
|--------------------------------------------------------------------|

|-------------------------------------------------------------------|
|-------------------------------------------------------------------|
|-12121212121212121212121212121212----------------------------------|
|----------------------------------15151515151515151515151515151515-|

|------------------------------------------------------------------|
|------------------------------------------------------------------|
|-1414141414141414141414141414141414141414141414141414141414141414-|
|------------------------------------------------------------------|

|---------------------------------------------------------------------|
|---------------------------------------------------------------------|
|------------------0000000000000000-2222222222222000------------------|
|-3333333333333333-----------------------------------3333333333333333-|

|---------------------------------------------------------------------|
|---------------------------------------------------------------------|
|------------------0000000000000000-2222222222222000------------------|
|-3333333333333333-----------------------------------3333333333333333-|

|---------------------------------------------------------------------|
|---------------------------------------------------------------------|
|------------------0000000000000000-2222222222222000------------------|
|-3333333333333333-----------------------------------3333333333333333-|

|--------------------------------------|
|--------------------------------------|
|------------------0000000000000000-2~~|
|-3333333333333333---------------------|

End

ⓘ Bass guitar tab for 'Disarray' by Lifehouse, a pop-rock band formed in 1996 from Los Angeles, USA. Lifehouse is known for their gritty rock/pop music.

Almost there ...

Sign in to get your own page with links to favourite songs and more. You are just one click away...

Login with Facebook Login with Google