Log in

One click and you are in

Login with Facebook Login with Google

Why sign up and log in

Guitar Tabs Explorer
Lifehouse tabs for Climb

Guitar tabs

CLIMB written by jason wade


Tuning: Standard


(gtr1. verse)
|-x---|----0--4--2--1--|-0--0--0--2--1------|
|-x---|----2--5--3--3--|-2--2--2--3--3------|
|-6---|----2--6--2--2--|-2--1--0--2--2--x 2-|
|-7---|----2--6--0--0--|-2--2--2--0--0------|
|-7---|----0--4--0--0--|-0--0--0--0--0------|
|-5---|----x--x--x--x--|-x--x--x--x--x------|

(gtr2.Verse)
|----------------------|--------------------------------------|
|----------------------|-----17------17------17--19--18-------|
|----------------------|---18--18--18--18--18--18--18--18--x2-|
|----------7--11-12----|-19------18------17-------------------|
|----------x--x---x----|--------------------------------------|
|----------5--9--10----|--------------------------------------|


gtr.1.chorus              Interlude
|-x--x--2--0--x--2--0-----|-----------------|-------2--1-|
|-x--x--3--0--x--3--0-----|-----------------|-------3--3-|
|-x--6--2--1--4--2--1-----|--4--6--7--9-----|-4--6--2--2-|
|-4--6--0--2--4--0--2-x 2-|--4--6--7--9--x3-|-4--6--0--0-|
|-4--4--0--2--2--0--2-----|--2--4--5--7-----|-2--4--0--0-|
|-2--x--x--0--x--x--0-----|--x--x--x--x-----|-x--x--x--x-|


gtr.2. chorus              Interlude
|----------------------------|
|----------------------------|
|-6--10-11-13--8--11-8--7--9-| Play octaves from gtr.1.
|-x--x--x--x---x--x--x--x--x-|
|-4--8--9--11--6--9--6--5--7-|
|----------------------------|


gtr.1. solo
|-0--0--0--2--1------|
|-2--2--2--3--3------|
|-2--1--0--2--2--x 2-|
|-2--2--2--0--0------|
|-0--0--0--0--0------|
|-x--x--x--x--x------|


gtr.2. solo
|-17----------------16---------------15----------|
|---17-----------17---20-17----19--18------------|
|-----18------18-----------18----18-----x2-------|
|-------19-18----------------19------------------|
|------------------------------------------------|
|------------------------------------------------|


chorus
|-x--x--2--0--x--2--0-----|
|-x--x--3--0--x--3--0-----|
|-x--6--2--1--4--2--1-----|
|-4--6--0--2--4--0--2-x4--|last time end on A chord diagramDmDm instead of A chord diagramE MajorE
|-4--4--0--2--2--0--2-----|
|-2--x--x--0--x--x--0-----|


gtr.2. chorus
|----------------------------|
|----------------------------|
|-6--10-11-13--8--11-8--7--9-|
|-x--x--x--x---x--x--x--x--x-|
|-4--8--9--11--6--9--6--5--7-|
|----------------------------|
ⓘ Guitar tab for 'Climb' by Lifehouse, a pop-rock band formed in 1996 from Los Angeles, USA. Lifehouse is known for their gritty rock/pop music.

Almost there ...

Sign in to get your own page with links to favourite songs and more. You are just one click away...

Login with Facebook Login with Google