Log in

One click and you are in

Login with Facebook Login with Google

Why sign up and log in

Guitar Tabs Explorer
Lifehouse bass tabs for Beginning

Bass tabs

Album:    Stanley Climbfall

Tuning:    Standard 5 String Bass
tabbed by:  jjhand



[Verse] Guitar Only


[Chorus 1] (0:57)
G|---------------|---------------|---------------|------------|
D|---------------|---------------|---------------|------------|
A|---------------|---------------|---------------|------------|
E|---------------|-5-------------|-1-------------|-4----------|
B|-1-------------|---------------|---------------|------------|


G|---------------|---------------|---------------|------------|
D|---------------|---------------|---------------|------------|
A|---------------|---------------|---------------|------------|
E|---------------|-5-------------|-1-------------|-4----------|
B|-1-------------|---------------|---------------|------------|


[Verse 2]
G|-----------------|-----------------|-----------------|----------------|
D|-----------------|-----------------|-----------------|----------------|
A|-6-6-6-6-6-6-6-6-|-6-6-6-6-6-6-6---|-----------------|-----------6---6|
E|-----------------|---------------6-|-8-8-8-8-8-8-8-8-|-8-8-8-8-8---8--|
B|-----------------|-----------------|-----------------|----------------|

G|-----------------|-----------------|-----------------|-----------------|
D|-----------------|-8-8-8-8-8-8-8-8-|-6-6-6-6-6-6-6-6-|-6-6-6-6-6-6-6-6-|
A|-8-8-8-8-8-8-8-8-|-----------------|-----------------|-----------------|
E|-----------------|-----------------|-----------------|-----------------|
B|-----------------|-----------------|-----------------|-----------------|

G|-----------------|-----------------|-----------------|----------------|
D|-----------------|-----------------|-----------------|----------------|
A|-6-6-6-6-6-6-6-6-|-6-6-6-6-6-6-----|-----------------|-----------6---6|
E|-----------------|---------------6-|-8-8-8-8-8-8-8-8-|-8-8-8-8-8---8--|
B|-----------------|-------------8---|-----------------|----------------|

G|-----------------|-----------------|-----------------|---------8-8-----|
D|-----------------|-8-8-8-8-8-8-8-8-|-6-6-6-6-6-6-6-6-|-6-6-6-6-----6-6-|
A|-8-8-8-8-8-8-8-8-|-----------------|-----------------|-----------------|
E|-----------------|-----------------|-----------------|-----------------|
B|-----------------|-----------------|-----------------|-----------------|

G|-----------------|-----------------|
D|-5-5-5-5-5-5-5-6-|-----------------|
A|-----------------|-------------6-5-|
E|-----------------|-7-7-7-7-7-------|
B|-----------------|-----------7-----|



[Chorus]
G|-----------------|-----------------|-----------------|---------------------|
D|-----------------|-----------------|-----------------|---------------------|
A|-----------------|-----------------|-----------------|---------------------|
E|-8-8-8-8-8-8-8-8-|-8-8-8-8-8-8-0-3-|-5-5-5-5-5-5-5-5-|-5-5-----3---5-3h5p3-|
B|-----------------|-----------------|-----------------|-----3/5-------------|

G|-----------------|-----------------|-------------------------|
D|-----------------|-----------------|-------------------------|
A|-----------------|-----------------|-11-11-11-11-11-11-11-11-|
E|-1-1-1-1-1-1-1-1-|-1-1-1-1-1-1-1-1/|-------------------------|
B|-----------------|-----------------|-------------------------|

G|-------------------------|-----------------|-----------------|-----------------|
D|-------------------------|-----------------|-----------------|-----------------|
A|-11-11-11-11-11-11-11-10-|-----------------|-----------------|-----------------|
E|-------------------------|-8-8-8-8-8-8-8-8-|-8-8-8-8-8-8-0-3-|-5-5-5-5-5-5-5-5-|
B|-------------------------|-----------------|-----------------|-----------------|

G|-----------------|-----------------|------------------|-------------------------|
D|-----------------|-----------------|------------------|-------------------------|
A|-----------------|-----------------|------------/10-8-|-11-11-11-11-11-11-11-11-|
E|-5-5-----3--5-3--|-1-1-1-1-1-1-1-1-|-1-1-1-1-1-1------|-------------------------|
B|-----3/5---------|-----------------|------------------|-------------------------|

G|-------------------------|
D|-------------------------|
A|-10-10-10-10-10-10-10-10-|
E|-------------------------|
B|-------------------------|


[Bridge]
G|-------------------------|-------------------------|-----------------------|
D|-------------------------|-------------------------|------------8--8--8--8-|
A|-11-11-11-11-11-11-11-11-|-11-11-11-11-10-10-10-10-|-8--8--8--8------------|
E|-------------------------|-------------------------|-----------------------|
B|-------------------------|-------------------------|-----------------------|

G|-----------------------|------------------------|------------------------|
D|-8--8--8--8----------8-|------------------------|------------------------|
A|-------------5--6--8---|------------------------|-------8--8--8--6--5----|
E|-----------------------|-8--8--8--8--8--8--8--8-|-8--8-----------------8-|
B|-----------------------|------------------------|------------------------|

G|-------------------------|-------------------------|-----------------------|
D|-------------------------|-------------------------|------------8--8--8--8-|
A|-11-11-11-11-11-11-11-11-|-11-11-11-11-10-10-10-10-|-8--8--8--8------------|
E|-------------------------|-------------------------|-----------------------|
B|-------------------------|-------------------------|-----------------------|

G|-----------------------|------------------------|--------------------------|
D|-8--8--8--8----------8-|------------------------|-------------------10-----|
A|-------------5--6--8---|------------------------|-------10-10-10-10----10\-|
E|-----------------------|-8--8--8--8--8--8--8--8-|-8--8---------------------|
B|-----------------------|------------------------|--------------------------|

G|-------------------------|-------------------------|-------------------------|
D|-------------------------|-------------------------|-------------------------|
A|-11-11-11-11-11-11-11-11-|-11-11-11-11-8--8--8--8--|-10-10-10-10-10-10-10-10-|
E|-------------------------|-------------------------|-------------------------|
B|-------------------------|-------------------------|-------------------------|

G|-------------------------|
D|-------------------------|
A|-------------------------|
E|-7--7--7--7--7--7-----7--|
B|-------------------8-----|


[Final Chorus]
G|-----------------|-----------------|-----------------|---------------------|
D|-----------------|-----------------|-----------------|---------------------|
A|-----------------|-----------------|-----------------|---------------------|
E|-8-8-8-8-8-8-8-8-|-8-8-8-8-8-8-0-3-|-5-5-5-5-5-5-5-5-|-5-5-----3---5-3h5p3-|
B|-----------------|-----------------|-----------------|-----3/5-------------|

G|-----------------|-----------------|-------------------------|
D|-----------------|-----------------|-------------------------|
A|-----------------|---------------3/|-11-11-11-11-11-11-11-11-|
E|-1-1-1-1-1-1-1-1-|-1-1-1-1-1-1-1---|-------------------------|
B|-----------------|-----------------|-------------------------|

G|-------------------------|-----------------|-----------------|-----------------|
D|-------------------------|-----------------|-----------------|-----------------|
A|-11-11-11-11-11-11-11-10-|-----------------|-----------------|-----------------|
E|-------------------------|-8-8-8-8-8-8-8-8-|-8-8-8-8-8-8-0-3-|-5-5-5-5-5-5-5-5-|
B|-------------------------|-----------------|-----------------|-----------------|

G|-----------------|-----------------|------------------|-------------------------|
D|-----------------|-----------------|------------------|-------------------------|
A|-----------------|-----------------|---------------3/-|-11-11-11-11-11-11-11-11-|
E|-5-5-----3--5-3--|-1-1-1-1-1-1-1-1-|-1-1-1-1-1-1-1----|-------------------------|
B|-----3/5---------|-----------------|------------------|-------------------------|

G|-------------------------|
D|-------------------------|
A|-11-11-11-11-11-11-11-10-|
E|-------------------------|
B|-------------------------|


G|-----------------|-----------------|-----------------|---------------------|
D|-----------------|-----------------|-----------------|---------------------|
A|-----------------|-----------------|-----------------|---------------------|
E|-8-8-8-8-8-8-8-8-|-8-8-8-8-8-8-0-3-|-5-5-5-5-5-5-5-5-|-5-5-----3---5-3h5p3-|
B|-----------------|-----------------|-----------------|-----3/5-------------|

G|-----------------|-----------------|-------------------------|
D|-----------------|-----------------|-------------------------|
A|-----------------|---------------3/|-11-11-11-11-11-11-11-11-|
E|-1-1-1-1-1-1-1-1-|-1-1-1-1-1-1-1---|-------------------------|
B|-----------------|-----------------|-------------------------|

G|-------------------------|-----------------|-----------------|-----------------|
D|-------------------------|-----------------|-----------------|-----------------|
A|-11-11-11-11-11-11-11-10-|-----------------|-----------------|-----------------|
E|-------------------------|-8-8-8-8-8-8-8-8-|-8-8-8-8-8-8-0-3-|-5-5-5-5-5-5-5-5-|
B|-------------------------|-----------------|-----------------|-----------------|

G|-----------------|-----------------|------------------|------------------|
D|-----------------|-----------------|------------------|------------------|
A|-----------------|-----------------|---------------3/-|-11~--------------|
E|-5-5-----3--5-3--|-1-1-1-1-1-1-1-1-|-1-1-1-1-1-1-1----|------------------|
B|-----3/5---------|-----------------|------------------|------------------|


****************************
Key:
| / slide up
| \ slide down
| h hammer-on
| p pull-off
| ~ vibrato
****************************
ⓘ Bass guitar tab for 'Beginning' by Lifehouse, a pop-rock band formed in 1996 from Los Angeles, USA. Lifehouse is known for their gritty rock/pop music.

Almost there ...

Sign in to get your own page with links to favourite songs and more. You are just one click away...

Login with Facebook Login with Google