Log in

One click and you are in

Login with Facebook Login with Google

Why sign up and log in

Guitar Tabs Explorer
Lifehouse bass tabs for Anchor

Bass tabs

A good song, with a very bass driven verse.


Chorus: (also the intro)
   Hold 4 counts    Hold 4 counts    Hold 4 counts    Hold 2 counts   Hold 2 counts
G---------------------------------------------------------------------------------------------------------
D-----------------------------------------------------------------------------------------4-4-4-4---------
A-------4-4-4-4--------------------------------------------------------6-6-6-6----------------------------
E-----------------------------6-6-6-6--------------4-4-4-4------------------------------------------------


Verse:
        Listen for timing...Repeat for the whole verse...
G-----------------------------------
D----------------------6-4--3-------
A---3-4--4---------3-4--6--3--------
E-----------------------------------


Bridge after the last choruses: Where the guitar wails...

G---------------------------------------------------------------------------
D-----------------3-3-3-----4-4-4-4---6-6-6-6-------------------------------
A---6-6-6-6-----------------------------------------------------------------
E---------------------------------------------------------------------------

ⓘ Bass guitar tab for 'Anchor' by Lifehouse, a pop-rock band formed in 1996 from Los Angeles, USA. Lifehouse is known for their gritty rock/pop music.

Almost there ...

Sign in to get your own page with links to favourite songs and more. You are just one click away...

Login with Facebook Login with Google