Log in

One click and you are in

Login with Facebook Login with Google

Why sign up and log in

Guitar Tabs Explorer
Lifehouse bass tabs for Am i ever gonna find out

Am I Ever Gonna Find Out bass tab by Lifehouse

Lifehouse bass tabs for Am i ever gonna find out

Bass tabs

Lifehouse - "Am I Ever Gonna Find Out"
From "Stanley Climbfall" album
5 String Bass tuning
tabbed by jjhand


 Verse starts at end of 2nd bar of intro

G|-------|-----------------|-----------------|
D|-------|-----------------|-----------------|
A|-------|---------4-4-----|-----------------|
E|-----2-|-4---7-4---------|-----------------|
B|-2/4---|---------------7-|-5------7-7------|


 Prechorus

  play 2x
G|----------------|-----------------|
D|----------------|-----------------|
A|----------------|-----------------|
E|----------------|-----3---4-4-2---|
B|-5------7-7-----|-4-------------4-|

G|----------------|-----------------|
D|----------------|-----------------|
A|----------------|-----------------|
E|--------------6-|-7---6---4---2---|
B|-5------7-7-----|-----------------|


 Chorus

  play 2x
G|----------------|-----------------|
D|----------------|-----------------|
A|-4--------------|-----------------|
E|----------------|-0------0-0----4-|
B|--------2-2---4-|-----------------|

G|----------------|-----------------|
D|----------------|-----------------|
A|-4--------------|-----------------|
E|----------------|-0------2-2------|
B|--------2-2---4-|-----------------|



Before 2nd Verse
G|-----------------|---------------|
D|-----------------|---------------|
A|---------4-4-----|---------------|
E|-4---7-4---------|-------7-6-----|
B|---------------7-|-5---------7-4-|





Verse 2
G|-----------------|---------------|
D|-----------------|---------------|
A|---------4-4-----|---------------|
E|-4---7-4---------|-------7---6---|
B|---------------7-|-5-------------|

G|-----------------|---------------|
D|-----------------|---------------|
A|---------4-4-----|-------2-------|
E|-4---7-4---------|-------------2-|
B|---------------7-|-5-------2-4---|

G|-----------------|---------------|
D|-----------------|---------------|
A|---------4-4-----|---------------|
E|-4---7-4---------|---------------|
B|---------------7-|-5-----7-7-----|



Play Prechorus/Chorus


Solo Section

  play 2x
G|----------------|-----------------|
D|----------------|-----------------|
A|----------------|-----------------|
E|----------------|-----3---4---2---|
B|-5------7-7-----|-4---------------|

  play once
G|----------------|-----------------|
D|----------------|-----------------|
A|----------------|-----------------|
E|--------------6-|-7---6---4---2---|
B|-5------7-7-----|-----------------|




Bridge to ending (drums stop)

G|-----------------|---------------|
D|-----------------|--------6------|
A|-7-------9-------|-6-------------|
E|-----------------|---------------|
B|-----------------|---------------|

G|-----------------|---------------|
D|-----------------|---------------|
A|-7-------9-------|-6-------------|
E|-----------------|--------4---2--|
B|-----------------|---------------|

G|----------------|-----------------|
D|----------------|-----------------|
A|----------------|-----------------|
E|--------------6-|-7---6---4---2---|
B|-5------7-7-----|-----------------|


Play Chorus to end song
ⓘ Bass guitar tab for 'Am I Ever Gonna Find Out' by Lifehouse, a pop-rock band formed in 1996 from Los Angeles, USA. Lifehouse is known for their gritty rock/pop music.

Almost there ...

Sign in to get your own page with links to favourite songs and more. You are just one click away...

Login with Facebook Login with Google