Log in

One click and you are in

Login with Facebook Login with Google

Why sign up and log in

Guitar Tabs Explorer
Liana Flores chords for Six the musical mashup ukulele

Six The Musical Mashup Ukulele chords by Liana Flores

Liana Flores chords for Six the musical mashup ukulele

Guitar chords with lyrics

Tuning: D G B E (D G B E)

Use a ukulele with a low G string, otherwise it will sound wrong. A baritone with a capo will also work.

Chords should be played as follows; unspecified chords are played as standard/left up to the player.

C   - 5433
C#  - 6544
D#/Eb - 3331
G   - 4232
G#/Ab - 5343
Em  - 4432
Fm  - 5543

Ex-Wives:

(muted strumming)

 Em
A|-7-----------|
E|-7---5-7-8-7-|
C|-7-----------|
G|-9-----------|
Listen up, let me tell you a story

  G
A|-5-----------|
E|-7-----------|
C|-7---6---6---|
G|-7-----7-----|
A story that you think you’ve heard before

  C
A|-3-----------|
E|-3-----------|
C|-4---4-3-4-6-|
G|-5-----------|
I know you know our names and our fame and our faces

  C6
A|-3-----------|
E|-3-----------|
C|-4-----------|
G|-2---4-4-----|
All about our glories and our disgraces

C
Welcome to the show,
    C
To the histo-remix
Em
Switching up the beat as we add the prefix
D                   A C D#
Everybody knows that we used to be six wives

No Way:
N.C.      D
N-n-n-n-n-n-no way
N.C.
There’s no way
D
You must agree that, baby, in all the time I’ve been by your side
D
I never lost control no matter how many times I know you lied
F
Got my golden rule
G          D
Gotta keep it cool, yeah

Baby
F  C     G       D
(You know she’s got to keep it cool)
D           F
You must think that I’m crazy,
      C
You want to replace me,

But baby, there’s
G      G D
N-n-n-n-n-n-no way
D         F
If you think for a moment,
       C
I’d grant you annulment,

Just hold up,
    G       G
There’s n-n-n-n-n-n-no way
N.C.
There’s no way

Don’t Lose Your Head:
G          Em
Sorry, not sorry for what I said
Bm            D7
I’m just tryna’ have some fun :)
   G             Em
Don’t worry, don’t worry, don’t lose your head,
 Bm         D7
I didn’t mean to hurt anyone.
G G  Em Em
L-O-L
  Bm Bm
Say ‘Oh well!’
     D7 D7
Or go to Hell!
G          Em
Sorry, not sorry for what I said,
Bm  D7    G
Don’t lose your head.

Heart of Stone:

A|-------4-|
E|-----4---|
C|---3-----|
G|-3-------|

       Fm
A|-------4---------3-------------------------------4-|
E|-----4---------4-------------------------------4---|
C|---3---------5-------------------------------3-----|
G|-3---------5-------------------------------3-------|
But I took your hand, promised that I’d withstand

N.C.
Any blaze you blew my way

                Fm
A|-----------------4-----------------3-|
E|---------------4-----------------4---|
C|-------------3-----------------5-----|
G|-----------3-----------------5-------|
‘Cause something inside, it solidified,

   C#    G#   G#
And I knew I’d always stay.
C#        Fm
You can build me up,
           G#
You can break me down,
           D#
You can try, but I’m unbreakable
C#
You can do your best,
Fm
But I’ll stand the test.
G#         D#
You’ll find that I’m unshakable.
C#       Fm
When the fire’s burnt,
         G#
When the wind has blown,
         D#
When the water’s dry,
         C#
You’ll still find stone.
N.C.
My heart of…

Haus of Holbein:
Ebm N.C.
Welcome to the house,
            Ebm G#m Ebm A#
To the Haus of Holbein! Ja
   Ebm G#m
Ooh ja
Ebm A#
Das ist gut, ooh ja

       Ebm        A#
A|---2---2------1---1-------------1---1-|
E|---4---4------2---2-------------1---1-|
C|---3---3------3---3-------------2---2-|
G|-1---1------3---3-------------3---3---|
Ignore the fear and you’ll be fine,

B
We’ll turn this vier into a nine!

        Ebm
A|---2---2-------1---1------|
E|---4---4-------2---2------|
C|---3---3-------3---3------|
G|-1---1-------3---3--------|  A#
So just say ‘ja’ and don’t say nein!

    N.C.
‘Cause now you’re in the house,
N.C.
In the Haus of Holbein!

Get Down:

A|----------|
E|----------|
C|-0--0-2-3-|
G|----------|
Sittin’ here all alone,

     A|-------|
     E|-------|
     C|-------|
     G|--3-3--|
On a throne,

A|----------|       A|----|
E|----------|       E|----|
C|----------|       C|-0--|
G|------2-2-|       G|----|
In a palace that I happen to own,

A|----------|
E|----------|
C|----0-2-3-|
G|----------|
Bring me some pheasant,

       A|-----------|
       E|-----------|
       C|-----------|
       G|--3-3--2-2-|
Keep it on the bone.

    A|----------|
    E|----------|
    C|-0--0-2-3-|
    G|----------|
I wanna go hunting, any takers?

     A|-------|
     E|-------|
     C|-------|
     G|--3-3--|
I’m no fake,

       A|-----|
       E|-----|
       C|-----|
       G|-2-2-|
‘Cause I’ve got acres and acres.

A|----------|
E|----------|
C|-0--0-2-3-|
G|----------|
Paid for with my own riches.

    A|-----|
    E|-----|
    C|-----|
    G|-3-3-|
Where the hounds at?

A|-----|
E|-----|
C|-----|
G|-2---|
Release the bitches.

G#         D#
You, you say that I tricked ya,
A#               Cm
‘Cause I, I didn’t look like my profile picture.
G#          D#
Too, too bad I don’t agree.
    A#          G7
So I’m gonna hang it up for everyone to see,
    G7  G7  G7 N.C.
And you can’t stop me ‘cause

A|---|
E|---|
C|-0-|
G|---|
I’m the queen of the castle,

N.C.
Get down, you dirty rascal
N.C.
Get down

All You Wanna Do:
F       A7
Maybe this is it!
    Dm        A#
He just cares so much, it feels legit.
F          A7
I feel this connection.
 Dm        A#  A# A#6 Dm A7
I think this guy is different,
Dm            F
‘Cause all you wanna do, all you wanna do, baby,
E         D#
Touch me, love me, can’t get enough of me,
Dm        F
All you wanna do, all you wanna do, baby,
E           D#
Please me, squeeze me, birds and the bees me,
F        Dm
Run your fingers through my hair
    A#
As you tell me I’m the fairest of the fair.
A#     A#6
Playtime’s over.
  A7
The only thing you wanna do is…

I Don’t Need Your Love:

A|--------------------3---|
E|--------------------4---|
C|--------------------5---|
G|------------------6-----|
You know I love you, boy,

A---3---------------|
E|--3---------------|
C|--3---------------|
G|--3---------------|
In every single way,

A|---2------------------1--|
E|---2------------------1--|
C|---2------------------1--|
G|---2----------------1----|
You know I love you, boy,

A|--------3---------|
E|--------3---------|
C|--------0---------|
G|--------1---------|
And I’ll miss you every day,

A|-------------3----|
E|-------------4----|
C|-------------5----|
G|-----------6------|
I love you, boy,

 C#
I wish that I could stay with you,
  C#            G#maj7
And keep the life I made with you.

           Fm
          A|---3----|
          E|---4----|
          C|---5----|
          G|-5------|
But I don’t need your love.

  C#   G#
A|-4--4----3--3-|
E|-4--4----4--4-|
C|-5--5----3--3-|
G|-6------5-----|
No, no.

  Cm             Fm
A|---3------------3-------------3--3--|
E|---3------------3-------------4--4--|
C|---3------------3-------------5--5--|
G|-5----------------------------5-----|
It’ll never be better than it was.

  C#   G#
A|-4--4----3--3-|
E|-4--4----4--4-|
C|-5--5----3--3-|
G|-6------5-----|
No, no,

  G#        Fm
A|---3--3--------------3--|
E|---4--4--------------4--|
C|---3--3--------------5--|
G|-5-----------------5----|
I don’t need your love,

  C#   G#
A|-4--4----3--3-|
E|-4--4----4--4-|
C|-5--5----3--3-|
G|-6------5-----|
No, no,

   G#           Fm  C#
A|-----3-------3----------------3--4-|
E|-----4-------4----------------4--4-|
C|-----3-------3----------------5--5-|
G|---5------------------------5----6-|
It’ll never be better than it was,

C#6 Cm6
No, no…

Six:
B F# D#m A#m x2
   C#
We’re one of a kind,
  G#
No category!
Fm         D#
Too many years lost in history,
   C#        G#
We’re free to take our crown in glory,
  Fm        D#
For five more minutes!

(muted strumming)
   G# G# G# G#
We’re

Six!

Almost there ...

Sign in to get your own page with links to favourite songs and more. You are just one click away...

Login with Facebook Login with Google