Log in

One click and you are in

Login with Facebook Login with Google

Why sign up and log in

Guitar Tabs Explorer
Liam Gallagher bass tabs for Now that ive found you

Now That I've Found You bass tab by Liam Gallagher

Liam Gallagher bass tabs for Now that ive found you

Bass tabs

Tuning: Standard (E A D G)


Intro:
Nothing to play

E|--------------------------------------------------|
A|--------------------------------------------------|
D|--------------------------------------------------|
G|--------------------------------------------------|
Verse 1:

0:09 -0:33

E|--8-8--8-8--8-8--8-8--5-5-------------------------|
A|-----10---10---10---10---7-5-5-7-5----------------|
D|--------------------------------------------------|
G|--------------------------------------------------|

E|--8-8--8-8--8-8--8-8--5-5-------------------------------8-|
A|-----10---10---10---10---7-5-5-7-5-8-8-8-8-8-8-8-8-8-7-5--|
D|----------------------------------------------------------|
G|----------------------------------------------------------|


Chorus:

0:34-0:55

E|--8-8--8-8--8-8---5-5--------8-5-3-|-8-8--8-8--8-8--5-5------------8-8-8-8-5-|
A|-----10---10---10----7-7-5-5-7-5---|----10---10---10----7-7-5-5-7-5--------5-|
D|-----------------------------------|-----------------------------------------|
G|-----------------------------------|-----------------------------------------|

Post - Chorus:

0:56-1:13

E|-5-5-------5-5---------8--------------------------|
A|----7-5-5-7---7-5-5-7/8---------------------------|
D|--------------------------------------------------|
G|--------------------------------------------------|


Verse 2:

1:14-1:39

E|--8-8--8-8--8-8--8-8--5-5-------------------------|
A|-----10---10---10---10---7-5-5-7-5----------------|
D|--------------------------------------------------|
G|--------------------------------------------------|

E|--8-8--8-8--8-8--8-8--5-5-------------------------------8-|
A|-----10---10---10---10---7-5-5-7-5-8-8-8-8-8-8-8-8-8-7-5--|
D|----------------------------------------------------------|
G|----------------------------------------------------------|


Chorus:

1:40-2:02

E|--8-8--8-8--8-8---5-5--------8-5-3-|-8-8--8-8--8-8--5-5------------8-8-8-8-5-|
A|-----10---10---10----7-7-5-5-7-5---|----10---10---10----7-7-5-5-7-5--------5-|
D|-----------------------------------|-----------------------------------------|
G|-----------------------------------|-----------------------------------------|

Post - Chorus:

2:03-2:20

E|-5-5-------5-5---------8--------------------------|
A|----7-5-5-7---7-5-5-7/8---------------------------|
D|--------------------------------------------------|
G|--------------------------------------------------|


Instrumental, the same as the verse:

2:21-2:40

E|--8-8--8-8--8-8--8-8--5-5-------------------------|
A|-----10---10---10---10---7-5-5-7-5----------------|
D|--------------------------------------------------|
G|--------------------------------------------------|

E|--8-8--8-8--8-8--8-8--5-5-------------------------------8-|
A|-----10---10---10---10---7-5-5-7-5-8-8-8-8-8-8-8-8-8-7-5--|
D|----------------------------------------------------------|
G|----------------------------------------------------------|


Chorus:

2:41-2:02

E|--8-8--8-8--8-8---5-5--------8-5-3-|-8-8--8-8--8-8--5-5------------8-8-8-8-5-|
A|-----10---10---10----7-7-5-5-7-5---|----10---10---10----7-7-5-5-7-5--------5-|
D|-----------------------------------|-----------------------------------------|
G|-----------------------------------|-----------------------------------------|

Post - Chorus:

3:02-3:17

E|-5-5-------5-5---------8--------------------------|
A|----7-5-5-7---7-5-5-7/8---------------------------|
D|--------------------------------------------------|
G|--------------------------------------------------|


************************************

| / Slide up

************************************

Almost there ...

Sign in to get your own page with links to favourite songs and more. You are just one click away...

Login with Facebook Login with Google