Search tabs and chords

Search for song, artist or band

Log in

One click and you are in

Login with Facebook Login with Google

Why sign up and log in

Guitar Tabs Explorer
Lewis Capaldi guitar tabs for Someone you loved acoustic

Guitar tabs with lyrics

  • Capo on 1st
Tuning: Standard (E chord diagramEE A chord diagramAA D chord diagramDD G chord diagramGG B chord diagramBB E chord diagramEE)

I'm going under and this time I fear there's no one to save me
e|-------------------------------------------------------------------|
B|-------------------------------------------------------------------|
G|-9------------------4------------------5----------------------2----|
D|-------------------------------------------------------------------|
A|-------------------------------------------------------------------|
E|-8------------------3------------------5----------------------1----|

This all or nothing really got a way of driving me crazy
e|-------------------------------------------------------------------|
B|-------------------------------------------------------------------|
G|-9------------------4------------------5----------------------2----|
D|-------------------------------------------------------------------|
A|-------------------------------------------------------------------|
E|-8------------------3------------------5----------------------1----|

I need somebody to heal, Somebody to know, Somebody to have, Somebody to hold
e|-------------------------------------------------------------------|
B|-------------------------------------------------------------------|
G|-9------------------4------------------5----------------------2----|
D|-------------------------------------------------------------------|
A|-------------------------------------------------------------------|
E|-8------------------3------------------5----------------------1----|

It's easy to say, But it's never the same, I guess I kinda liked the way you numbed all the pain
e|-------------------------------------------------------------------|
B|-------------------------------------------------------------------|
G|-9------------------4------------------5----------------------2----|
D|-------------------------------------------------------------------|
A|-------------------------------------------------------------------|
E|-8------------------3------------------5----------------------1----|

Now the day bleeds, Into nightfall, And you're not here, To get me through it all
e|-------------------------------------------------------------------|
B|-------------------------------------------------------------------|
G|-9------------------4------------------5----------------------2----|
D|-------------------------------------------------------------------|
A|-------------------------------------------------------------------|
E|-8------------------3------------------5----------------------1----|

I let my guard down, And then you pulled the rug, I was getting kinda used to being someone you loved
e|-------------------------------------------------------------------|
B|-------------------------------------------------------------------|
G|-9------------------4------------------5----------------------2----|
D|-------------------------------------------------------------------|
A|-------------------------------------------------------------------|
E|-8------------------3------------------5----------------------1----|

I'm going under and this time I fear there's no one to turn to
e|-------------------------------------------------------------------|
B|-------------------------------------------------------------------|
G|---9--9--9--9----4--4--4--4----5--5--5--5----2--2--2--2------------|
D|-------------------------------------------------------------------|
A|-------------------------------------------------------------------|
E|-8--8--8--8----3--3--3--3----5--5--5--5----1--1--1--1--------------|

This all or nothing way of loving got me sleeping without you
e|-------------------------------------------------------------------|
B|-------------------------------------------------------------------|
G|---9--9--9--9----4--4--4--4----5--5--5--5----2--2--2--2------------|
D|-------------------------------------------------------------------|
A|-------------------------------------------------------------------|
E|-8--8--8--8----3--3--3--3----5--5--5--5----1--1--1--1--------------|

Now, I need somebody to know, Somebody to heal, Somebody to have, Just to know how it feels
e|-------------------------------------------------------------------|
B|-------------------------------------------------------------------|
G|---9--9--9--9----4--4--4--4----5--5--5--5----2--2--2--2------------|
D|-------------------------------------------------------------------|
A|-------------------------------------------------------------------|
E|-8--8--8--8----3--3--3--3----5--5--5--5----1--1--1--1--------------|

It's easy to say but it's never the same, I guess I kinda liked the way you helped me escape
e|-------------------------------------------------------------------|
B|-------------------------------------------------------------------|
G|---9--9--9--9----4--4--4--4----5--5--5--5----2--2--2--2------------|
D|-------------------------------------------------------------------|
A|-------------------------------------------------------------------|
E|-8--8--8--8----3--3--3--3----5--5--5--5----1--1--1--1--------------|

Now the day bleeds, Into nightfall, And you're not here, To get me through it all
e|-------------------------------------------------------------------|
B|-------------------------------------------------------------------|
G|---9--9--9--9----4--4--4--4----5--5--5--5----2--2--2--2------------|
D|-------------------------------------------------------------------|
A|-------------------------------------------------------------------|
E|-8--8--8--8----3--3--3--3----5--5--5--5----1--1--1--1--------------|

I let my guard down, And then you pulled the rug, I was getting kinda used to being someone you loved
e|-------------------------------------------------------------------|
B|-------------------------------------------------------------------|
G|---9--9--9--9----4--4--4--4----5--5--5--5----2--2--2--2------------|
D|-------------------------------------------------------------------|
A|-------------------------------------------------------------------|
E|-8--8--8--8----3--3--3--3----5--5--5--5----1--1--1--1--------------|

And I tend to close my eyes when it hurts sometimes, I fall into your arms
e|-------------------------------------------------------------------|
B|-------------------------------------------------------------------|
G|---7--7--7--7---2--2--2--2---1--1--1--1---1--1--1--1---------------|
D|-------------------------------------------------------------------|
A|-------------------------------------------------------------------|
E|-7--7--7--7---2--2--2--2---0--0--0--0---0--0--0--0-----------------|

I'll be safe in your sound 'til I come back around
e|-------------------------------------------------------------------|
B|-------------------------------------------------------------------|
G|---7--7--7--7---2--2--2--2---1--1--1--1---1--1--1--1---------------|
D|-------------------------------------------------------------------|
A|-------------------------------------------------------------------|
E|-7--7--7--7---2--2--2--2---0--0--0--0---0--0--0--0-----------------|

For now the day bleeds, Into nightfall, And you're not here, To get me through it all
e|-------------------------------------------------------------------|
B|-------------------------------------------------------------------|
G|-9------------------4------------------5----------------------2----|
D|-------------------------------------------------------------------|
A|-------------------------------------------------------------------|
E|-8------------------3------------------5----------------------1----|

I let my guard down, And then you pulled the rug, I was getting kinda used to being someone you loved
e|-------------------------------------------------------------------|
B|-------------------------------------------------------------------|
G|---9--9--9--9----4--4--4--4----5--5--5--5----2--2--2--2------------|
D|-------------------------------------------------------------------|
A|-------------------------------------------------------------------|
E|-8--8--8--8----3--3--3--3----5--5--5--5----1--1--1--1--------------|

But now the day bleeds, Into nightfall, And you're not here, To get me through it all
e|-------------------------------------------------------------------|
B|-------------------------------------------------------------------|
G|---9--9--9--9----4--4--4--4----5--5--5--5----2--2--2--2------------|
D|-------------------------------------------------------------------|
A|-------------------------------------------------------------------|
E|-8--8--8--8----3--3--3--3----5--5--5--5----1--1--1--1--------------|

I let my guard down, And then you pulled the rug. I was getting kinda used to being someone you loved
e|-------------------------------------------------------------------|
B|-------------------------------------------------------------------|
G|---9--9--9--9----4--4--4--4----5--5--5--5----2--2--2--2------------|
D|-------------------------------------------------------------------|
A|-------------------------------------------------------------------|
E|-8--8--8--8----3--3--3--3----5--5--5--5----1--1--1--1--------------|

I let my guard down, And then you pulled the rug, I was getting kinda used to being someone you loved
e|-------------------------------------------------------------------|
B|-------------------------------------------------------------------|
G|---9--9--9--9----4--4--4--4----5--5--5--5----2--2--2--2------------|
D|-------------------------------------------------------------------|
A|-------------------------------------------------------------------|
E|-8--8--8--8----3--3--3--3----5--5--5--5----1--1--1--1--------------|

Other versions of Someone You Loved Acoustic

Someone you lovedChords
Someone you loved ukuleleChords

Almost there ...

Sign in to get your own page with links to favourite songs and more. You are just one click away...

Login with Facebook Login with Google