Log in

One click and you are in

Login with Facebook Login with Google

Why sign up and log in

Guitar Tabs Explorer
Lewis Capaldi bass tabs for Let it roll

Bass tabs

Tuning: Standard (E A D G)


Verse 1:

0:09

G|----------------------------------------------------------------|
D|----------------6-8------------------6-6----6-6-----6-8-6-------|
A|-6---6----6-6-9------9-9---9-x-9---6------6-------6-------9-----|
E|----------------------------------------------------------------|x2
Pre-chorus:

0:29

G|-------------------------------------------------------------------------------------------|
D|-----4-4--------4-4---------8-8-------8-8-------------------------------6-6--------6-6-----|
A|-2-2-----2--2-2-----2---6-6-----6--6-6----6------4-4--------4-4-----4-4-----4--4-4-----4---|
E|---------------------------------------------2-2-----2--2-2-----2/-------------------------|

G|----------------------------------------------------------------------------------|
D|-----4-4--------4-4---------8-8-------8-8-------------------------------6-6----.--|
A|-2-2-----2--2-2-----2---6-6-----6--6-6----6------4-4--------4-4-----4-4-----4--4--|
E|---------------------------------------------2-2-----2--2-2-----2/----------------|


Chorus:

0:47

G|---------------------------------------------------------------------------|
D|---------------------------------11-11-11-11-11-11-11-11-9-9-9-9-9-11-9-11-|
A|-6-6-6-6-6-6-6-6-9-9-9-9-9-9-9-9-------------------------------------------|
E|---------------------------------------------------------------------------|x3

Verse 2:

1:19

G|----------------------------------------------------------------|
D|----------------6-8------------------6-6----6-6-----6-8-6-------|
A|-6---6----6-6-9------9-9---9-x-9---6------6-------6-------9-----|
E|----------------------------------------------------------------|x2


Pre-chorus:

1:38

G|-------------------------------------------------------------------------------------------|
D|-----4-4--------4-4---------8-8-------8-8-------------------------------6-6--------6-6-----|
A|-2-2-----2--2-2-----2---6-6-----6--6-6----6------4-4--------4-4-----4-4-----4--4-4-----4---|
E|---------------------------------------------2-2-----2--2-2-----2/-------------------------|

G|-----------------------------------------------------------------------|
D|-----4-4--------4-4---------8-8-------8-8---------------------------.--|
A|-2-2-----2--2-2-----2---6-6-----6--6-6----6------4-4--------4-4-----4--|
E|---------------------------------------------2-2-----2--2-2-----2/-----|


Chorus:

1:57

G|---------------------------------------------------------------------------|
D|---------------------------------11-11-11-11-11-11-11-11-9-9-9-9-9-11-9-11-|
E|-6-6-6-6-6-6-6-6-9-9-9-9-9-9-9-9-------------------------------------------|
A|---------------------------------------------------------------------------|x3


Bridge:

2:36

G|-------------------------------------------------------------------------------------------|
D|-----4-4--------4-4---------8-8-------8-8-------------------------------6-6--------6-6-----|
A|-2-2-----2--2-2-----2---6-6-----6--6-6----6------4-4--------4-4-----4-4-----4--4-4-----4---|
E|---------------------------------------------2-2-----2--2-2-----2/-------------------------|

G|----------------------------------------------------------------------------------|
D|-----4-4--------4-4---------8-8-------8-8-------------------------------6-6----.--|
A|-2-2-----2--2-2-----2---6-6-----6--6-6----6------4-4--------4-4-----4-4-----4--4--|
E|---------------------------------------------2-2-----2--2-2-----2/----------------|


Chorus:

2:55

G|---------------------------------------------------------------------------|
D|---------------------------------11-11-11-11-11-11-11-11-9-9-9-9-9-11-9-11-|
A|-6-6-6-6-6-6-6-6-9-9-9-9-9-9-9-9-------------------------------------------|
E|---------------------------------------------------------------------------|x4


************************************

| x  Dead note
| /  Slide up
| \  Slide down

************************************

Almost there ...

Sign in to get your own page with links to favourite songs and more. You are just one click away...

Login with Facebook Login with Google