Log in

One click and you are in

Login with Facebook Login with Google

Why sign up and log in

Guitar Tabs Explorer
Lewis Capaldi guitar tabs for Before you go

Guitar tabs with lyrics

Tuning: Standard (E A D G B E)


Verse 1:

e|----------------------------------------------------------------------------------------|
B|----------------------------------------------------------------------------------------|
G|------4-4-------4-4--------4-4--------4-4--------4-4--------4-4-------------------------|
D|----------------------------------------------------------------------------------------|
A|--2--2-2-----2--2-2----2--2-2-----2--2-2-----2--2-2-----2--2-2--------------------------|
E|----------------------------------------------------------------------------------------|
                                 I fell by the wayside like everyone else

e|------------------------------------------------------------------------------------------|
B|------------------------------------------------------------------------------------------|
G|------4-4-----------4-4-----------4-4-----------4-4---------------------------------------|
D|------------------------------------------------------------------------------------------|
A|------------------------------------------------------------------------------------------|
E|--4--4-4--------4--4-4--------4--4-4--------4--4-4----------------------------------------|
 I hate you, I hate you, I hate you? but I was just kidding myself

e|-----------------------------------------------------------------------------------------------------------|
B|-----------------------------------------------------------------------------------------------------------|
G|------4-4------4-4------4-4------4-4-----------------------------------------------------------------------|
D|-----------------------------------------------------------------------------------------------------------|
A|-----------------------------------------------------------------------------------------------------------|
E|--0--0-0---0--0-0---0--0-0---0--0-0------------------------------------------------------------------------|
   Our every moment, I start to replace,

e|-----------------------------------------------------------------------------------------------------------|
B|-----------------------------------------------------------------------------------------------------------|
G|---------4-4-----------4-4-----------3-3------3-3----------------------------------------------------------|
D|-----------------------------------------------------------------------------------------------------------|
A|-----------------------------------------------------------------------------------------------------------|
E|----2--2-2--------2--2-2---------2--2-2------2--2-2--------------------------------------------------------|
     'Cause now that they're gone, all I hear are the words that I needed to say


Pre-chorus:

e|----------------------------------------------------------------------------------------|
B|----------------------------------------------------------------------------------------|
G|------4-4-----------4-4------------4-4------------4-4-----------------------------------|
D|----------------------------------------------------------------------------------------|
A|--2--2-2---------2--2-2--------2--2-2---------2--2-2------------------------------------|
E|----------------------------------------------------------------------------------------|
   When      you        hurt   under    the     surface

e|------------------------------------------------------------------------------------------|
B|------------------------------------------------------------------------------------------|
G|------4-4-----------4-4-----------4-4-----------4-4---------------------------------------|
D|------------------------------------------------------------------------------------------|
A|------------------------------------------------------------------------------------------|
E|--4--4-4--------4--4-4--------4--4-4--------4--4-4----------------------------------------|
    Like        troubled     water     running ...

e|-----------------------------------------------------------------------------------------------------------|
B|-----------------------------------------------------------------------------------------------------------|
G|------4-4--------4-4--------4-4--------4-4--------4-4------4-4------3-3------3-3---------------------------|
D|-----------------------------------------------------------------------------------------------------------|
A|-----------------------------------------------------------------------------------------------------------|
E|--0--0-0-----0--0-0-----0--0-0-----0--0-0-----2--2-2---2--2-2---2--2-2---2--2-2----------------------------|
   cold                    Well,    time can heal but this won't


CHORUS 1:
uses these variations on chords

e|------------------------------------------------------------------------------------------------------|
B|------4---------4------4-----4-----2----2-------------------------------------------------------------|
G|------4---4-----4------4-----4-----4----4-------4-----------------------------------------------------|
D|----------4-------------------------------------4-----------------------------------------------------|
A|------2---2-------------------------------------1-----------------------------------------------------|
E|----------------2------4-----0-----0----2-------------------------------------------------------------|
        A chord diagramBB   B*    A chord diagramF#F#     A chord diagramG#G#    A chord diagramE MajorE     E*   F#*     A chord diagramA#A#


A chord diagramBB                A chord diagramF#F#
So, before you go
                   A chord diagramG#G#
Was there something I could've said

To make your heart beat better?
A chord diagramE MajorE                                         E*
If only I'd have known you I'd have stormed the weather
A chord diagramBB                A chord diagramF#F#
So, before you go
              A chord diagramG#G#
Was there something I could've said

To make it all stop hurting?
A chord diagramE MajorE                                      E*
It kills me how your mind can make you feel so worthless
F#*             A chord diagramBB
So, before you go


Verse 2:

e|----------------------------------------------------------------------------------------|
B|----------------------------------------------------------------------------------------|
G|------4-4-----------4-4------------4-4------------4-4-----------------------------------|
D|----------------------------------------------------------------------------------------|
A|--2--2-2---------2--2-2--------2--2-2---------2--2-2------------------------------------|
E|----------------------------------------------------------------------------------------|
          Was never the right time, whenever you called

e|------------------------------------------------------------------------------------------|
B|------------------------------------------------------------------------------------------|
G|------4-4-----------4-4-----------4-4-----------4-4---------------------------------------|
D|------------------------------------------------------------------------------------------|
A|------------------------------------------------------------------------------------------|
E|--4--4-4--------4--4-4--------4--4-4--------4--4-4----------------------------------------|
  Went little by little by little until there was nothing at all

e|-----------------------------------------------------------------------------------------------------------|
B|------4-4------4-4------4-4------4-4-----------------------------------------------------------------------|
G|------4-4------4-4------4-4------4-4-----------------------------------------------------------------------|
D|-----------------------------------------------------------------------------------------------------------|
A|-----------------------------------------------------------------------------------------------------------|
E|--0--0-0---0--0-0---0--0-0---0--0-0------------------------------------------------------------------------|
  Our every moment, I start to replay

e|-----------------------------------------------------------------------------------------------------------|
B|-----------------------------------------------------------------------------------------------------------|
G|---------4-4-----------4-4-----------3-3------3-3----------------------------------------------------------|
D|-----------------------------------------------------------------------------------------------------------|
A|-----------------------------------------------------------------------------------------------------------|
E|----2--2-2--------2--2-2---------2--2-2------2--2-2--------------------------------------------------------|
     But all I can think about is seeing that look on your face


Pre-chorus:

e|----------------------------------------------------------------------------------------|
B|----------------------------------------------------------------------------------------|
G|------4-4-----------4-4------------4-4------------4-4-----------------------------------|
D|----------------------------------------------------------------------------------------|
A|--2--2-2---------2--2-2--------2--2-2---------2--2-2------------------------------------|
E|----------------------------------------------------------------------------------------|
   When      you        hurt   under    the     surface

e|------------------------------------------------------------------------------------------|
B|------------------------------------------------------------------------------------------|
G|------4-4-----------4-4-----------4-4-----------4-4---------------------------------------|
D|------------------------------------------------------------------------------------------|
A|------------------------------------------------------------------------------------------|
E|--4--4-4--------4--4-4--------4--4-4--------4--4-4----------------------------------------|
    Like        troubled     water     running ...

e|-----------------------------------------------------------------------------------------------------------|
B|-----------------------------------------------------------------------------------------------------------|
G|------4-4--------4-4--------4-4--------4-4--------4-4------4-4------3-3------3-3---------------------------|
D|-----------------------------------------------------------------------------------------------------------|
A|-----------------------------------------------------------------------------------------------------------|
E|--0--0-0-----0--0-0-----0--0-0-----0--0-0-----2--2-2---2--2-2---2--2-2---2--2-2----------------------------|
   cold                    Well,    time can heal but this won't


A chord diagramBB                A chord diagramF#F#
So, before you go
                   A chord diagramG#G#
Was there something I could've said

To make your heart beat better?
A chord diagramE MajorE                                         E*
If only I'd have known you I'd have stormed the weather
A chord diagramBB                A chord diagramF#F#
So, before you go
              A chord diagramG#G#
Was there something I could've said

To make it all stop hurting?
A chord diagramE MajorE                                      E*
It kills me how your mind can make you feel so worthless
F#*             A chord diagramBB
So, before you go


A chord diagramG#G#          A chord diagramE MajorE             A chord diagramBB
Would we be better off by now?
    A chord diagramF#F#                     A chord diagramG#G#
If I'd have let my wall come down
          A chord diagramE MajorE                A chord diagramF#F#
Maybe I guess we'll never know
                  A chord diagramBB
You know, you know


B*              A chord diagramA#A#
So, before you go
                   A chord diagramG#G#
Was there something I could've said

To make your heart beat better?
A chord diagramE MajorE                                         E*
If only I'd have known you I'd have stormed the weather
A chord diagramBB                A chord diagramF#F#
So, before you go
              A chord diagramG#G#
Was there something I could've said

To make it all stop hurting?
A chord diagramE MajorE                                      E*
It kills me how your mind can make you feel so worthless
F#*             A chord diagramBB
So, before you go

Other versions of Before You Go

Before you goChords
Before you go (Ver. 2)Chords
Before you go (Ver. 3)Chords
Before you go ukuleleChords

↓ Add and view comments below ↓

What do you think about this song and these tabs?

Add your comments, questions, rant or a thumbs up below.

Almost there ...

Sign in to get your own page with links to favourite songs and more. You are just one click away...

Login with Facebook Login with Google