Log in

One click and you are in

Login with Facebook Login with Google

Why sign up and log in

Guitar Tabs Explorer
Less Than Jake bass tabs for Goodbye mr personality

Goodbye Mr Personality bass tab by Less Than Jake

Less Than Jake bass tabs for Goodbye mr personality

Bass tabs

-------------------------------------------------------------------------------
               Goodbye, Mr. Personality - Less Than Jake
-------------------------------------------------------------------------------
Tabbed by:
E-mail:
Tuning:EADG


Intro (guitar)
G|------11-------------------33-----444-3-1----------------------------|
D|--222----44-----11-----444----66----------4-2-----------------------o|
A|------------222----44-----------------------------------------------o|
E|---------------------------------------------------------------------|


Intro
G|---4-3-1-------------------------------------------------------------------|
D|---------2-----------------------------------------------------------------|
A|---------------------------------------------------------------------------|
E|---------------------------------------------------------------------------|


Verse                                     into chorus
G|------11-----------------33----444-3-1------*-----11-----------------33------------------|
D|--222----44-----11----44----66---------4-2--*-222----44-----11----44----66---4-2-1-------|
A|------------222----44-----------------------*-----------222----44------------------4-2---|
E|--------------------------------------------*--------------------------------------------|


Chorus
G|-------------1-4------6-3-----------------------1-4----6-3-------------------------------|
D|-----1-4--22------44--------------------1-4--22-----44-----------------------------------|
A|--22-------------------------6-2---22----------------------------6-6-22/66-4-4-4-4-2-----|
E|--------------------------44--------------------------------4--4-------------------------|

Verse 2                                  Variation
G|------11-----------------33----444-3-1-----*-----11-----------------33----4-3-4-6-4-3-----|
D|--222----44-----11----44----66---------4-2-*-222----44-----11----44----66-------------4-2-|
A|------------222----44----------------------*-----------222----44--------------------------|
E|-------------------------------------------*----------------------------------------------|


Break
G|------3---------3-------1-4-1----4-3----*----------|
D|-1-4---4---1-4---4---2--------2-----4---*----------|
A|----------------------------------------*----------|
E|----------------------------------------*----------|

G|---3----------3-----------1-4-1----1-4-1-----3-6-3----3-6-3----------|
D|-1--4---4---1--4---4----2--------2---------4--------4--------4-4-4\0-|
A|---------------------------------------------------------------------|
E|---------------------------------------------------------------------|


Chorus variation
G|-----------1-4----6-3-----------*------------1-4----6-3----6-3-----8-4----8-3-----6-3----------|
D|---1-4--22-----44---------------*----1-4--22-----44-----44------66-----66------44-----4-2-1----|
A|22------------------------6-4-2-*-22--------------------------------------------------------4-2|
E|-----------------------44-------*--------------------------------------------------------------|

For t-bone solo, play what you played for intro and verse


| / slide up
| \ slide down
| h hammer-on
| p pull-off
| ~ vibrato
| + harmonic
| x Mute note
ⓘ Bass guitar tab for 'Goodbye Mr Personality' by Less Than Jake, a punk rock band formed in 1992 from Gainesville, Florida, USA

Almost there ...

Sign in to get your own page with links to favourite songs and more. You are just one click away...

Login with Facebook Login with Google