Log in

One click and you are in

Login with Facebook Login with Google

Why sign up and log in

Guitar Tabs Explorer
Les Rita Mitsouko bass tabs for Marcia baila

Bass tabs

Tuning: Standard (E A D G)

Difficulty: Novice


Intro:

G|------------------------|------------------------|------------------------|------------------------|
D|------------------------|------------------------|------------------------|------------------------|
A|------4-5--5-2--5-7-7-7-|------4-5--5-2--5-7-7-7-|------4-5--5-2--5-7-7-7-|------4-5--5-2--5-7-7-7-|
E|-4-5--------------------|-4-5--------------------|-4-5--------------------|-4-5--------------------|

G|------------------------|------------------------|
D|------------------------|------------------------|
A|------4-5--5-2--5-7-7-7-|------4-5--5-2--5-7-7-7-|
E|-4-5--------------------|-4-5--------------------|

Verse:

"Marcia, elle danse..."
G|------------------------|------------------------|------------------------|------------------------|
D|------------------------|------------------------|------------------------|------------------------| X3
A|------4-5--5-2--5-7-7-7-|------4-5--5-2--5-7-7-7-|------4-5--5-2--5-7-7-7-|------4-5--5-2--5-7-7-7-|
E|-4-5--------------------|-4-5--------------------|-4-5--------------------|-4-5--------------------|


Pre-Chorus:
1:08

G|------------------------|------------------------|------------------------|--------------------------|
D|------------------------|------------------------|--------------------4---|--------------------------|
A|-9--9--9--9--9--9-7-8-9-|-9--9--9--9--9--9-7-8-9-|-9--9--9--9--9--9-5---5-|-7-7--7-7--7-7--7-7-7-8-9-|
E|------------------------|------------------------|------------------------|--------------------------|

"Et quand tu ris..."
G|------------------------|------------------------|------------------------|--------------------------|
D|------------------------|------------------------|--------------------4---|--------------------------|
A|-9--9--9--9--9--9-7-8-9-|-9--9--9--9--9--9-7-8-9-|-9--9--9--9--9--9-5---5-|-7-7--5-5--4-4--2-2-------|
E|------------------------|------------------------|------------------------|--------------------------|


Chorus:

"Mais c'est la mort qui t'as assassinée..."
G|------------------------|------------------------|------------------------|------------------------|
D|------------------------|------------------------|------------------------|------------------------| X2
A|------4-5--5-2--5-7-7-7-|------4-5--5-2--5-7-7-7-|------4-5--5-2--5-7-7-7-|------4-5--5-2--5-7-7-7-|
E|-4-5--------------------|-4-5--------------------|-4-5--------------------|-4-5--------------------|


Verse:

"Marcia danse un peu chinois..."
G|------------------------|------------------------|------------------------|------------------------|
D|------------------------|------------------------|------------------------|------------------------| X3
A|------4-5--5-2--5-7-7-7-|------4-5--5-2--5-7-7-7-|------4-5--5-2--5-7-7-7-|------4-5--5-2--5-7-7-7-|
E|-4-5--------------------|-4-5--------------------|-4-5--------------------|-4-5--------------------|


Pre-Chorus:
2:53

G|------------------------|------------------------|------------------------|--------------------------|
D|------------------------|------------------------|--------------------4---|--------------------------|
A|-9--9--9--9--9--9-7-8-9-|-9--9--9--9--9--9-7-8-9-|-9--9--9--9--9--9-5---5-|-7-7--7-7--7-7--7-7-7-8-9-|
E|------------------------|------------------------|------------------------|--------------------------|

G|------------------------|------------------------|------------------------|--------------------------|
D|------------------------|------------------------|--------------------4---|--------------------------|
A|-9--9--9--9--9--9-7-8-9-|-9--9--9--9--9--9-7-8-9-|-9--9--9--9--9--9-5---5-|-7-7--5-5--4-4--2-2-------|
E|------------------------|------------------------|------------------------|--------------------------|

Interlude:
(No Bass)

3:38
G|------------------------|------------------------|------------------------|------------------------|
D|------------------------|------------------------|------------------------|------------------------|
A|------4-5--5-2--5-7-7-7-|------4-5--5-2--5-7-7-7-|------4-5--5-2--5-7-7-7-|------4-5--5-2--5-7-7-7-|
E|-4-5--------------------|-4-5--------------------|-4-5--------------------|-4-5--------------------|


Pre-Chorus:

"Moretto..."
G|------------------------|------------------------|------------------------|--------------------------|
D|------------------------|------------------------|--------------------4---|--------------------------|
A|-9--9--9--9--9--9-7-8-9-|-9--9--9--9--9--9-7-8-9-|-9--9--9--9--9--9-5---5-|-7-7--7-7--7-7--7-7-7-8-9-|
E|------------------------|------------------------|------------------------|--------------------------|

G|------------------------|------------------------|------------------------|--------------------------|
D|------------------------|------------------------|--------------------4---|--------------------------|
A|-9--9--9--9--9--9-7-8-9-|-9--9--9--9--9--9-7-8-9-|-9--9--9--9--9--9-5---5-|-7-7--5-5--4-4--2-2-------|
E|------------------------|------------------------|------------------------|--------------------------|


Chorus:

"Mais c'est la mort..."
G|------------------------|------------------------|------------------------|------------------------|
D|------------------------|------------------------|------------------------|------------------------| X2
A|------4-5--5-2--5-7-7-7-|------4-5--5-2--5-7-7-7-|------4-5--5-2--5-7-7-7-|------4-5--5-2--5-7-7-7-|
E|-4-5--------------------|-4-5--------------------|-4-5--------------------|-4-5--------------------|


Outro:
4:54

G|----------------------------|
D|----------------------------| X8
A|-----8-8--------10-10-10-10-|
E|-8-8-----10-10--------------|

Almost there ...

Sign in to get your own page with links to favourite songs and more. You are just one click away...

Login with Facebook Login with Google