Log in

One click and you are in

Login with Facebook Login with Google

Why sign up and log in

Guitar Tabs Explorer
John Lennon bass tabs for Woman

Bass tabs

John Lennon


INTRO

 4/4
G|---------------------------------|---------------------------------|
D|---------------------------------|-------------------------7-------|
A|---------------------------------|---------------------------------|
E|---------------------------------|---------------------------------|

G|-7-------------------------------|---------------------------------|
D|---------------------------------|-------------------------7\------|
A|---------------------------------|---------------------------------|
E|---------------------------------|---------------------------------|
VERSE

G|---------------------------------|---------------------------------|
D|-0-----------0---2---------------|-4---------------2---------------|
A|---------------------------------|-----------------------------0---|
E|---------------------------------|---------------------------------|

G|---------------------------------|-----------------2---------------|
D|-0-----------0-------------------|-2-------------------------------|
A|-----------------2---------------|---------------------------------|
E|---------------------------------|---------------------------------|

G|-0-------------------------------|-----------------2---------------|
D|-----------------2---------------|-4-------------------------------|
A|---------------------------------|---------------------------------|
E|---------------------------------|---------------------------------|

G|---------------------------------|---------------------------------|
D|-0-----------0---2---------------|-4---------------2---------------|
A|---------------------------------|-----------------------------0---|
E|---------------------------------|---------------------------------|

G|---------------------------------|---------------------------------|
D|-0-----------0-------------------|-2-------------------------------|
A|-----------------2---------------|-----------------0-------0-------|
E|---------------------------------|---------------------------------|

                  2/4
G|---------------------------------|-----------------|
D|-----------------2---------------|-4/--------------|
A|---------------------------------|-----------------|
E|-3-------------------------------|-----------------|

 4/4
G|-2-------------------------------|---------------------------------|
D|-7-------------------7-----------|---------------------------------|
A|---------------------------------|-0---------------0---------------|
E|---------------------------------|---------------------------------|

CHORUS

G|---------------------------------|---------------------------------|
D|---------4---7-------------------|-------------4-------------------|
A|-5---5---------------------------|---------5-----------------------|
E|---------------------------------|-7---7---------------------------|

G|---------------------------------|---------------------------------|
D|---------5-----------------------|-7-------------------------------|
A|-7---7---------------------------|---------------------------------|
E|---------------------------------|-----------------5---5---7---5---|

G|---------------------------------|---------------------------------|
D|---------4---7-------------------|-------------4-------------------|
A|-5---5---------------------------|---------5-----------------------|
E|---------------------------------|-7---7---------------------------|

G|---------------------------------|---------------------------------|
D|---------5-----------------------|-7-------------------------------|
A|-7---7---------------------------|---------------------------------|
E|---------------------------------|-----------------5-------7-------|


VERSE

G|---------------------------------|---------------------------------|
D|---------------------------------|-4---------------2---------------|
A|-5-----------5---7---------------|-----------------------------0---|
E|---------------------------------|---------------------------------|

G|---------------------------------|-----------------2-------2-------|
D|-0-----------0-------------------|-2-------------------------------|
A|-----------------2---------------|---------------------------------|
E|---------------------------------|---------------------------------|

G|-0-------------------------------|-----------------2---------------|
D|-----------------2---------------|-4-------------------------------|
A|---------------------------------|---------------------------------|
E|---------------------------------|---------------------------------|

G|---------------------------------|---------------------------------|
D|-0-----------0---2---------------|-4---------------2---------------|
A|---------------------------------|-----------------------------0---|
E|---------------------------------|---------------------------------|

G|---------------------------------|---------------------------------|
D|-0-----------0-------------------|-2-------------------------------|
A|-----------------2---------------|-----------------0-------0-------|
E|---------------------------------|---------------------------------|

                  2/4
G|---------------------------------|-----------------|
D|-----------------2---------------|-4---------------|
A|---------------------------------|-----------------|
E|-3-------------------------------|-----------------|

 4/4
G|---------------------------------|---------------------------------|
D|-7-------------------7-----------|---------------------------------|
A|---------------------------------|-0---------------2-------4-------|
E|---------------------------------|---------------------------------|


CHORUS

G|---------------------------------|---------------------------------|
D|---------4---7-------------------|-------------4-------------------|
A|-5-------------------------------|---------5-----------------------|
E|---------------------------------|-7---7---------------------------|

G|-------------9-------------------|---------------------------------|
D|---------------------------------|-7-------------------------------|
A|-7---7---10----------------------|---------------------------------|
E|---------------------------------|-----------------5---5---7---5---|

G|---------------------------------|---------------------------------|
D|---------4---7-------------------|-------------4-------------------|
A|-5-------------------------------|---------5-----------------------|
E|---------------------------------|-7---7---------------------------|

G|-------------9-------------------|---------------------------------|
D|---------------------------------|-7-------------------------------|
A|-7---7---10----------------------|---------------------------------|
E|---------------------------------|-----------------5---5---7---5---|


VERSE

G|---------------------------------|---------------------------------|
D|---------------------------------|-5-------------------------------|
A|-6-----------6---8---------------|-----------------8---------------|
E|---------------------------------|-----------------------------6---|

G|---------------------------------|---------------------------------|
D|---------------------------------|---------------------------------|
A|-6-----------6-------------------|-8-------------------------------|
E|-----------------8---------------|-----------------6-------6-------|

                  2/4
G|---------------------------------|-----------------|
D|-----------------3---------------|-5---------------|
A|---------------------------------|-----------------|
E|-4-------------------------------|-----------------|

 4/4
G|---------------------------------|---------------------------------|
D|-8-------------------8-----------|---------------------------------|
A|---------------------------------|---------------------------------|
E|---------------------------------|-6-------------------------------|


CHORUS

G|---------------------------------|---------------------------------|
D|---------5---8-------------------|-------------5-------------------|
A|-6---6---------------------------|---------6-----------------------|
E|---------------------------------|-8---8---------------------------|

G|-------------10------------------|---------------------------------|
D|---------------------------------|-8-------------------------------|
A|-8---8---11----------------------|---------------------------------|
E|---------------------------------|-----------------6---6---8---6---|

G|---------------------------------|---------------------------------|
D|---------5---8-------------------|-------------5-------------------|
A|-6---6---------------------------|---------6-----------------------|
E|---------------------------------|-8---8---------------------------|

G|-------------10------------------|---------------------------------|
D|---------------------------------|-8-------------------------------|
A|-8---8---11----------------------|---------------------------------|
E|---------------------------------|-----------------6---6---8---6---|

G|---------------------------------|---------------------------------|
D|---------5---8-------------------|-------------5-------------------|
A|-6---6---------------------------|---------6-----------------------|
E|---------------------------------|-8---8---------------------------|

G|-------------10------------------|---------------------------------|
D|---------------------------------|-8-------------------------------|
A|-8---8---11----------------------|---------------------------------|
E|---------------------------------|-----------------6---6---8---6---|

Almost there ...

Sign in to get your own page with links to favourite songs and more. You are just one click away...

Login with Facebook Login with Google