Log in

One click and you are in

Login with Facebook Login with Google

Why sign up and log in

Guitar Tabs Explorer
John Lennon bass tabs for Medley bring it on home to me send me some lovin

Medley Bring It On Home To Me Send Me Some Lovin bass tab by John Lennon

John Lennon bass tabs for Medley bring it on home to me send me some lovin

Bass tabs

MEDLEY: BRING IT ON HOME TO ME / SEND ME SOME LOVIN'


John Lennon


G|---------------------------------|---------------------------------|
D|---------------------------------|---------------------------------|
A|---------------------------------|---------------------------------|
E|---------------------------------|------------------------------0--|



 VERSE
 00:03

G|---------------------------------|---------------------------------|
D|---------------------------------|---------------------------------|
A|-0----0--0----0--0----0--0----0--|-0----0--0----0--0----0--0----0--|
E|---------------------------------|---------------------------------|




G|---------------------------------|---------------------------------|
D|---------------------------------|---------------------------------|
A|---------------------------------|---------------------------------|
E|-0----0--0----0--0----0--0----0--|-0----0--0----0--0----0--0----0--|


G|---------------------------------|---------------------------------|
D|---------------------------------|---------------------------------|
A|-0----0--0----0--0----0--0----0--|-0----0--0----0--0----0--0----4--|
E|---------------------------------|---------------------------------|




G|---------------------------------|---------------------------------|
D|---------------------------------|---------------------------------|
A|-5----5--5----5--5----5--5----5--|-5----5--5----5--5----5--5----5--|
E|---------------------------------|---------------------------------|




G|---------------------------------|---------------------------------|
D|---------------------------------|---------------------------------|
A|-0----0--0--1--2---------------7-|-5----5--5----5--7----7--7-------|
E|------------------0----0--0------|----------------------------0--4-|




G|---------------------------------|---------------------------------|
D|---------------------------------|---------------------------------|
A|-0----0--0----0--5----5--5----5--|-0----0--0----0------------------|
E|---------------------------------|-----------------0----0--0----0--|




 VERSE
 00:36

G|---------------------------------|---------------------------------|
D|---------------------------------|---------------------------------|
A|-0----0--0----0--0----0--0----0--|-0----0--0----0--0----0--0----0--|
E|---------------------------------|---------------------------------|




G|---------------------------------|---------------------------------|
D|---------------------------------|---------------------------------|
A|---------------------------------|---------------------------------|
E|-0----0--0----0--0----0--0----0--|-0----0--0----0--0----0--0----4--|




G|---------------------------------|---------------------------------|
D|---------------------------------|---------------------------------|
A|-0----0--0----0--0----0--0----0--|-0----0--0----0--0----0--0----4--|
E|---------------------------------|---------------------------------|




G|---------------------------------|---------------------------------|
D|---------------------------------|---------------------------------|
A|-5----5--5----5--5----5--5----5--|-5----5--5----5--5----5--5----5--|
E|---------------------------------|---------------------------------|




G|---------------------------------|---------------------------------|
D|---------------------------------|---------------------------------|
A|-0----0--0----0------------------|-5----5--5----5--7----7--7-------|
E|-----------------0----0--0----0--|----------------------------0--4-|




G|---------------------------------|---------------------------------|
D|---------------------------------|---------------------------------|
A|-0----0--0----0--5----5--5----5--|-0----0--0----0------------------|
E|---------------------------------|-----------------0----0--0--2--4-|




 GUITAR SOLO
 01:09

G|---------------------------------|---------------------------------|
D|---------------------------------|---------------------------------|
A|-0----0--0----0--0----0--0----2--|---------------------------------|
E|---------------------------------|-0----0--0----0--0----0--0----4--|




G|---------------------------------|---------------------------------|
D|---------------------------------|---------------------------------|
A|-0----0--0----0--0----0--0----4--|-5----5--5----5--5----5--5----5--|
E|---------------------------------|---------------------------------|




 CHORUS
 01:20

G|---------------------------------|---------------------------------|
D|---------------------------------|---------------------------------|
A|-0----0-0--1--2------------------|-5----5--5----5--7----7--7-------|
E|-----------------0----0--0-------|----------------------------0--4-|




G|---------------------------------|---------------------------------|
D|---------------------------------|---------------------------------|
A|-0----0--0----0--5----5--5----5--|-0----0--0----0------------------|
E|---------------------------------|-----------------0----0--0----0--|




 VERSE
 01:31

G|---------------------------------|---------------------------------|
D|---------------------------------|---------------------------------|
A|-0----0--0----0--0----0--0----0--|-0----0--0----0--0----0--0----0--|
E|---------------------------------|---------------------------------|




G|---------------------------------|---------------------------------|
D|---------------------------------|---------------------------------|
A|---------------------------------|---------------------------------|
E|-0----0--0----0--0----0--0----0--|-0----0--0----0--0----0--0----0--|




G|---------------------------------|---------------------------------|
D|---------------------------------|---------------------------------|
A|-0----0--0----0--0----0--0----0--|-0----0--0----0--0----0--0----4--|
E|---------------------------------|---------------------------------|




G|---------------------------------|---------------------------------|
D|---------------------------------|---------------------------------|
A|-5----5--5----5--5----5--5----5--|-5-------5-------5----5----5-----|
E|---------------------------------|---------------------------------|




G|---------------------------------|---------------------------------|
D|---------------------------------|---------------------------------|
A|-0----0--0----0------------------|-5----5--5----5--7----7--7-------|
E|-----------------0----0--0----0--|------------------------------0--|




G|---------------------------------|---------------------------------|
D|---------------------------------|---------------------------------|
A|-0----0-0--2--4--5----5-5--4--2--|-0---------------0---------------|
E|---------------------------------|---------------------------------|




G|-----------------|
D|-----------------|
A|-----------------|
E|-----------------|




 VERSE
 02:05

G|---------------------------------|---------------------------------|
D|----------------2-------4--2-----|----------------2-------4--2-----|
A|-0-----------4-------0--------4--|-0-----------4-------0--------4--|
E|---------------------------------|---------------------------------|




G|---------------------------------|---------------------------------|
D|---------------------------------|---------------------------------|
A|----------------2-------4--2-----|----------------2-------4--2-----|
E|-0-----------4-------0--------4--|-0-----------4-------0--------4--|




G|---------------------------------|---------------------------------|
D|---------------------------------|---------------------------------|
A|----------------2-------4-----2--|----------------2-------4--2-----|
E|-0-----------4-------0-----------|-0-----------4-------0--------4--|




G|---------------------------------|---------------------------------|
D|---------------------------------|---------------------------------|
A|-0---------0-2-4-5---------5-4-2-|-0-------------------------------|
E|---------------------------------|---------------------------------|




 VERSE
 02:28

G|---------------------------------|---------------------------------|
D|----------------2-------4--2-----|----------------2-------4--2-----|
A|-0-----------4-------0--------4--|-0-----------4-------0--------4--|
E|---------------------------------|---------------------------------|




G|---------------------------------|---------------------------------|
D|---------------------------------|---------------------------------|
A|----------------2-------4--2-----|----------------2-------4--2-----|
E|-0-----------4-------0--------4--|-0-----------4-------0--------4--|




G|---------------------------------|---------------------------------|
D|---------------------------------|---------------------------------|
A|----------------2-------4--2-----|----------------2-------4--2-----|
E|-0-----------4-------0--------4--|-0-----------4-------0--------4--|




G|---------------------------------|---------------------------------|
D|---------------------------------|---------------------------------|
A|-0---------0-2-4-5---------5-4-2-|-0-------2-------3-------4-------|
E|---------------------------------|---------------------------------|




 BRIDGE
 02:49

G|----------------2-------4--2-----|----------------2-------4--2-----|
G|-0-----------4-------0--------4--|-0-----------4-------0--------4--|
A|---------------------------------|---------------------------------|
E|---------------------------------|---------------------------------|




G|---------------------------------|---------------------------------|
D|----------------2-------4--2-----|----------------2-------4--2-----|
A|-0-----------4-------0--------4--|-0-----------4-------0--------4--|
E|---------------------------------|---------------------------------|




G|------------------------1--------|------------------------1--------|
D|-------------1--4----------4--1--|-------------1--4----------4--1--|
A|-2-------------------2-----------|-2-------------------2-----------|
E|---------------------------------|---------------------------------|




G|---------------------------------|---------------------------------|
D|-2---------------2---------------|-2-------------------------------|
A|------------------------------2--|---------------------------------|
E|--------------0------------------|---------------------------------|




 VERSE
 03:12

G|---------------------------------|---------------------------------|
D|----------------2-------4--2-----|----------------2-------4--2-----|
A|-0-----------4-------0--------4--|-0-----------4-------0--------4--|
E|---------------------------------|---------------------------------|




G|---------------------------------|---------------------------------|
D|---------------------------------|---------------------------------|
A|----------------2-------4--2-----|----------------2-------4--2-----|
E|-0-----------4-------0--------4--|-0-----------4-------0--------4--|




G|---------------------------------|---------------------------------|
D|---------------------------------|---------------------------------|
A|----------------2-------4--2-----|----------------2-------4--2-----|
E|-0-----------4-------0--------4--|-0-----------4-------0--------4--|




G|---------------------------------|---------------------------------|
D|---------------------------------|---------------------------------|
A|-0---------0-2-4-5---------5-4-2-|-0------------1-------0----------|
ⓘ Bass guitar tab for 'Medley Bring It On Home To Me Send Me Some Lovin' by John Lennon, John Winston Lennon, a male classic rock artist from Liverpool. England. John Lennon was born in 1940. He passed away in 1980. John Lennon was known for his dreamy rock/pop music.

Almost there ...

Sign in to get your own page with links to favourite songs and more. You are just one click away...

Login with Facebook Login with Google