Log in

One click and you are in

Login with Facebook Login with Google

Why sign up and log in

Guitar Tabs Explorer
John Lennon tabs for Love

Guitar tabs

"LOVE" By the great John Lennon. Really cool song.
    Matthew Clary's acoustic tabbed version


Intro/1st/2nd/4th verse
e----------------------------------------------------------
B-------2-------2---------0---------0---------2-------2----
G----2----2---2---2----2----2----2----2----2----2---2---2--
D-4---------4--------3---------3---------4--------4--------
A----------------------------------------------------------
E----------------------------------------------------------
e----------------------------------------------------------
B------1--------1---------3--------3--------5---------5----
G---2----2----2---2----4----4---4----4----6---6----6----6--
D-0---------0--------5--------5---------7--------7---------
A----------------------------------------------------------
E----------------------------------------------------------


e----------------------------------------------------------
B-----3--------3--------2---------2----------3----------3--
G---2---2---2----2---2----2----2----2----4-----4----4-----4
D-0-------0--------4---------4---------5----------5--------
A----------------------------------------------------------
E----------------------------------------------------------

                        [Repeat 4 times]
e-----------------------[--------------]------
b-------5---------5-----[-------3------]------Repeat
g----6-----6---6----6---[----2----2----]------Thrice
d-7----------7----------[--0---------0-]------
a-----------------------[--------------]------
e-----------------------[--------------]------

e-------------------------------------------------------------
b-------1---------1----------3---------3---------3--------3---
g----2----2----2----2-----4----4----4----4----2----2----2---2
d-3----------3---------5----------5---------4---------4-------
a-------------------------------------------------------------
e-------------------------------------------------------------

                                                         [Repeat 4 times]
e------------------------------------------[--------------]
b-------3--------3---------3----------3----[-------3------]
g----4----4---4----4----2----2-----2----2--[----2-----2---]
d-5---------5---------5---------5----------[--4-----------]
a------------------------------------------[--------------]
e------------------------------------------[--------------]
Go back to intro\1st\2nd\4th\ verse
If you have heard the song I am sure you
know what I am talkin about.
------
I think thats it.
so long.
Matthew Clary
ⓘ Guitar tab for 'Love' by John Lennon, John Winston Lennon, a male classic rock artist from Liverpool. England. John Lennon was born in 1940. He passed away in 1980. John Lennon was known for his dreamy rock/pop music.

Almost there ...

Sign in to get your own page with links to favourite songs and more. You are just one click away...

Login with Facebook Login with Google