Log in

One click and you are in

Login with Facebook Login with Google

Why sign up and log in

Guitar Tabs Explorer
John Lennon bass tabs for Just like starting over

Just Like Starting Over bass tab by John Lennon

John Lennon bass tabs for Just like starting over

Bass tabs

John Lennon


VERSE

G|---------------------------------|---------------------------------|
D|---------------------------------|---------------------------------|
A|-0---0---0---0---0---0---0-------|-0---0---0---0---0---0---0-------|
E|---------------------------------|---------------------------------|

G|---------------------------------|---------------------------------|
D|-------------------------4-------|-2---2---2-------2-------2--0----|
A|-2---2---2---2---5---------------|-------------------------------4-|
E|---------------------------------|---------------------------------|

G|---------------------------------|---------------------------------|
D|-------------------------4-------|-2---2---2---2---2-------2-------|
A|-2---2---2---2---5---------------|-----------------------------2---|
E|---------------------------------|---------------------------------|

G|-------------------------1-------|---------------------------------|
D|-----------------2---------------|-4---4---4-------4-------4--0----|
A|-4---4---4---4-------------------|-------------------------------4-|
E|---------------------------------|---------------------------------|

G|---------------------------------|---------------------------------|
D|-------------------------4-------|-2---2---2-----------------------|
A|-2---2---2---2---5---------------|---------------------------------|
E|---------------------------------|-----------------0-------0--2--4-|

G|---------------------------------|---------------------------------|
D|---------------------------------|---------------------------------|
A|---------------------------------|---------------------------------|
E|-5---5---5---5---5-------5---5---|-5---5---5---5---5-------5---5---|

G|---------------------------------|---------------------------------|
D|---------------------------------|-----------------7--7--7-7-------|
A|---------------------------------|---------------------------------|
E|-5---5---5---5---5-------5---5---|-5---5---5-----------------------|

VERSE

G|---------------------------------|---------------------------------|
D|---------------------------------|---------------------------------|
A|-0---0---0---0---0---0---0-------|-0---0---0---0---0---0---0-------|
E|---------------------------------|---------------------------------|

G|---------------------------------|---------------------------------|
D|-------------------------4-------|-2---2---2-------2-------2--0----|
A|-2---2---2---2---5---------------|-------------------------------4-|
E|---------------------------------|---------------------------------|

G|---------------------------------|---------------------------------|
D|-------------------------4-------|-2---2---2---2---2-------2-------|
A|-2---2---2---2---5---------------|-----------------------------2---|
E|---------------------------------|---------------------------------|

G|-------------------------1-------|---------------------------------|
D|-----------------2---------------|-4---4---4-------4-------4--0----|
A|-4---4---4---4-------------------|-------------------------------4-|
E|---------------------------------|---------------------------------|

G|---------------------------------|---------------------------------|
D|-------------------------4-------|-2---2---2-----------------------|
A|-2---2---2---2---5---------------|---------------------------------|
E|---------------------------------|-----------------0-------0--2--4-|

G|---------------------------------|---------------------------------|
D|---------------------------------|---------------------------------|
A|---------------------------------|---------------------------------|
E|-5---5---5---5---5-------5---5---|-5---5---5---5---5-------5---5---|

G|---------------------------------|---------------------------------|
D|---------------------------------|---------------------------------|
A|---------------------------------|---------------------------------|
E|-5---5---5---5---5-------5---5---|-3-------3-------3-------3-------|


G|---------------------------------|
D|---------------------------------|
A|---------------------------------|
E|-3-------------------------------|


BRIDGE

G|---------------------------------|-----------------2---------------|
D|-----------------2---------------|-------------4-----------4-------|
A|-0-----------3-----------3-------|-5-------------------------------|
E|---------------------------------|---------------------------------|

G|-------------4---7-------4-------|---------------------------------|
D|-5-------------------------------|---------------------------------|
A|---------------------------------|-----------------2---------------|
E|---------------------------------|-0-----------3-----------3---0---|

G|---------------------------------|-----------------2---------------|
D|-----------------2---------------|-------------4-----------4-------|
A|-0-----------3-----------3-------|-5-------------------------------|
E|---------------------------------|---------------------------------|

G|-------------4---7-------4/------|-0--0--0-0--0--0-0--0--0-0--0--0-|
D|-5-------------------------------|---------------------------------|
A|---------------------------------|---------------------------------|
E|---------------------------------|---------------------------------|


VERSE

G|---------------------------------|---------------------------------|
D|---------------------------------|---------------------------------|
A|-0---0---0---0---0---0---0-------|-0---0---0---0---0---0---0-------|
E|---------------------------------|---------------------------------|

G|---------------------------------|---------------------------------|
D|-------------------------4-------|-2---2---2-------2-------2--0----|
A|-2---2---2---2---5---------------|-------------------------------4-|
E|---------------------------------|---------------------------------|

G|---------------------------------|---------------------------------|
D|-------------------------4-------|-2---2---2---2---2-------2-------|
A|-2---2---2---2---5---------------|-----------------------------2---|
E|---------------------------------|---------------------------------|

G|-------------------------1-------|---------------------------------|
D|-----------------2---------------|-4---4---4-------4-------4--0----|
A|-4---4---4---4-------------------|-------------------------------4-|
E|---------------------------------|---------------------------------|

G|---------------------------------|---------------------------------|
D|-------------------------4-------|-2---2---2-----------------------|
A|-2---2---2---2---5---------------|---------------------------------|
E|---------------------------------|-----------------0-------0--2--4-|

G|---------------------------------|---------------------------------|
D|---------------------------------|---------------------------------|
A|---------------------------------|---------------------------------|
E|-5---5---5---5---5-------5---5---|-5---5---5---5---5-------5---5---|





G|---------------------------------|---------------------------------|
D|---------------------------------|---------------------------------|
A|---------------------------------|-0---0---0-------12-12-1212\-----|
E|-5---5---5---5---5-------5---5---|---------------------------------|

MIDDLE

G|---------------------------------|---------------------------------|
D|---------------------------------|---------------------------------|
A|-0---0---0---0---0-------0---0---|-0---0---0---0---0-------0---0---|
E|---------------------------------|---------------------------------|

G|---------------------------------|---------------------------------|
D|---------------------------------|---------------------------------|
A|-0---0---0---0---0-------0---0---|-0---0---0---0---0-------0---0---|
E|---------------------------------|---------------------------------|

G|---------------------------------|---------------------------------|
D|---------------------------------|---------------------------------|
A|-0---0---0---0---0-------0---0---|---------------------------------|
E|---------------------------------|-0---0---0---0---0-------0--2--4-|

G|---------------------------------|---------------------------------|
D|---------------------------------|---------------------------------|
A|-0---0---0---0---0-------0-------|---------------------------------|
E|---------------------------------|-0---0---0---0---0----2----4-----|

G|---------------------------------|---------------------------------|
D|---------------------------------|---------------------------------|
A|-0---0---0---0---0-------0-------|-0---0---0---0---0-------0-------|
E|---------------------------------|---------------------------------|

G|---------------------------------|---------------------------------|
D|---------------------------------|-----------------7----7----7-----|
A|-0---0---0---0---0-------0-------|-0----0----0---------------------|
E|---------------------------------|---------------------------------|

G|---------------------------------|-7-------------------------------|
D|---------------------------------|---------------------------------|
A|-5---5---5---5---5-------5-------|---------------------------------|
E|---------------------------------|---------------------------------|

G|---------------------------------|
D|---------------------------------|
A|---------------------------------|
E|---------------------------------|


OUTRO

G|---------------------------------|---------------------------------|
D|---------------------------------|---------------------------------|
A|-0---0---0---0---0-------0-------|-0---0---0---0---0-------0-------|
E|---------------------------------|---------------------------------|

G|---------------------------------|---------------------------------|
D|---------------------------------|---------------------------------|
A|-0---0---0---0---0-------0-------|-0---0---0---0---0-------0-------|
E|---------------------------------|---------------------------------|

G|---------------------------------|---------------------------------|
D|---------------------------------|---------------------------------|
A|-0---0---0---0---0-------0-------|-0---0---0---0---0-------0-------|
E|---------------------------------|---------------------------------|

G|---------------------------------|---------------------------------|
D|---------------------------------|---------------------------------|
A|-0---0---0---0---0-------0-------|-0---0---0---0---0-------0-------|
E|---------------------------------|---------------------------------|
ⓘ Bass guitar tab for 'Just Like Starting Over' by John Lennon, John Winston Lennon, a male classic rock artist from Liverpool. England. John Lennon was born in 1940. He passed away in 1980. John Lennon was known for his dreamy rock/pop music.

Almost there ...

Sign in to get your own page with links to favourite songs and more. You are just one click away...

Login with Facebook Login with Google