Log in

One click and you are in

Login with Facebook Login with Google

Why sign up and log in

Guitar Tabs Explorer
John Lennon bass tabs for Jealous guy

Bass tabs

listen carefully for timing on the notes, and accents and such.
I took alot of time into writing this tab out, it's pretty much perfect. Please rate it.


No bass in Verse 1

Bass enters 0:43 Chorus 1
G-------------------------------------------------------------------|
D-5---3--------------4--5---3------------------------------------4--|
A----------3-----5-5-------------1--0------------5---3-------3-5----|
E--------------------------------------3--2--0----------3-----------|


Verse 2  1:10
G------------------------------------------9----9-----|
D-5---2------------------------------7--9--------9----|
A--------5---5-5----5---5-5-6-7---10--------------7---|
E------------------5----------------------------------|


Verse 2 Continued  1:28
G--------------------------5---------------------|
D-------------------------------------2----------|
A-5----5-5--5--5/7---7--5-----3-3-3-3------------|
E-----5------------------------------------------|


Chorus 2  1:38
G-------------------------------------------------|
D-5--3------------5---5---3-----------------------|
A-------3---5-5--7-7----------1--1-0--------------|
E-------------------------------------3--2--0-----|


Chorus 2 continued  1:59
G-------------------------------------|
D-------------------------4-----------|
A-5---3---2-0---------3-5-------------|
E-------------3--2-3------------------|


Bridge/Whistle solo  2:05
G------------------------------------------7--7/9-------------|
D-5----------------------------------7--9---------------------|
A------2-5--5-5-5----5---5-5--7--10---------------7--7----5---|
E-------------------5---5-------------------------------7-----|


Bridge/Whistle solo continued  2:27
G--------------9--------------------|
D---------------9-------------------|
A--5-7-5-5-7-----7-7-7-3---3-3-3-5--|
E-5---------------------------------|


Chorus 3  2:35
G--------------------------------------------------|
D-5--3----------5---5--3---------------------------|
A------3--5-5--7-7--------1---1-1--1--0------------|
E----------------------------1-----------3--2--0---|


Chorus 3 Continued  2:55
G------------------------------------|
D---------------4--------------------|
A-5--3------3-5----------------------|
E-------3----------------------------|


Verse 3  3:03
G------------------------------------9/11--9---------|
D---------------------------------------------7------|
A----7----5--5-5-5--5-5---5-5--6-7-------------------|
E-3-----5----------------5---------------------------|


Verse 3 Continued  3:18
G----------------------------------------------------|
D---------------------------5-7-5---------------3----|
A-7------7-7---5---5-5-5--7-------7-5-3--3-3-3-------|
E----7-9----------5----------------------------------|


Chorus 4  3:32
G-----------------------------------------------|
D-5--5-3--3-----------3-5---5--5-3--3-----------|
A-----------3--3-5-5------5-----------1---1--0--|
E----------------------------------------1------|


Chorus 4 Continued  3:46
G------------------------------------------------|
D------------------------------------------------|
A----------5--3--5---0-2-3--5---2-3---2-0--------|
ⓘ Bass guitar tab for 'Jealous Guy' by John Lennon, John Winston Lennon, a male classic rock artist from Liverpool. England. John Lennon was born in 1940. He passed away in 1980. John Lennon was known for his dreamy rock/pop music.

Almost there ...

Sign in to get your own page with links to favourite songs and more. You are just one click away...

Login with Facebook Login with Google