Log in

One click and you are in

Login with Facebook Login with Google

Why sign up and log in

Guitar Tabs Explorer
John Lennon tabs for Instant karma

Guitar tabs with lyrics

John Lennon
Guitar


     W                   W                     Q    Q    Q    Q
A chord diagramE MajorE||-------------------|-------------------||---0----0----0----0----|
A chord diagramBB||-------------------|-------------------||---2----2----2----2----|
A chord diagramG+G||-------------------|-------------------||*--2----2----2----2----|
A chord diagramD MajorD||-------------------|-------------------||*--2----2----2----2----|
A chord diagramA augmentedA||-------------------|-------------------||---0----0----0----0----|
A chord diagramE MajorE||-------------------|-------------------||-----------------------|
  Q    Q    Q    Q       Q    Q    Q    Q       Q    Q    Q    Q
--2----2----2----2----|--0----0----0----0----|--2----2----2----2----|
--2----2----2----2----|--2----2----2----2----|--2----2----2----2----|
--2----2----2----2----|--2----2----2----2----|--2----2----2----2----|
--4----4----4----4----|--2----2----2----2----|--4----4----4----4----|
--4----4----4----4----|--0----0----0----0----|--4----4----4----4----|
--2----2----2----2----|----------------------|--2----2----2----2----|


  Q    Q    Q    Q       Q    Q    Q    Q       Q    Q    Q    Q
--0----0----0----0----|--2----2----2----2----|--1----1----3----3----|
--2----2----2----2----|--2----2----2----2----|--1----1----0----0----|
--2----2----2----2----|--2----2----2----2----|--2----2----0----0----|
--2----2----2----2----|--4----4----4----4----|--3----3----0----0----|
--0----0----0----0----|--4----4----4----4----|--3----3----2----2----|
----------------------|--2----2----2----2----|--1----1----3----3----|


  Q    Q    Q    Q       Q    Q    Q    Q       Q    Q    Q    Q
--0----0----0----0----|--2----2----2----2----|--2----2----2----2----|
--2----2----2----2----|--3----3----3----3----|--3----3----3----3----|
--2----2----2----2----|--2----2----2----2----|--2----2----2----2----|
--2----2----2----2----|--0----0----4----4----|--4----4----4----4----|
--0----0----0----0----|------------4----4----|--2----2----0----0----|
----------------------|----------------------|----------------------|

  Q    Q    Q    Q       Q    Q    Q    Q       Q    Q    Q    Q
--2----2----2----2----|--2----2----2----2----|--0----0----0----0----|
--3----3----3----3----|--3----3----3----3----|--1----1----1----1----|
--2----2----2----2----|--2----2----2----2----|--2----2----2----2----|
--0----0----4----4----|--4----4----4----4----|--2----2----2----2----|
------------4----4----|--2----2----0----0----|--3----3----2----2----|
----------------------|----------------------|----------------------|


  Q    Q    Q    Q       Q    Q    Q    Q       Q    Q    Q    Q
--0----0----0----0----|--2----2----2----2----|--0----0----0----0-----||
--1----1----1----1----|--3----3----3----3----|--0----0----0----0-----||
--2----2----2----2----|--2----2----2----2----|--1----1----1----1----*||
--2----2----2----2----|--0----0----0----0----|--2----2----2----2----*||
--0----0----0----0----|----------------------|--2----2----2----2-----||
------------3----3----|----------------------|--0----0----0----0-----||


  Q    Q    Q    Q       Q    Q    H           Q    Q    Q    Q
--2----2----2----2----|--2------------------|--2----2----2----2----|
--3----3----3----3----|--3------------------|--3----3----3----3----|
--2----2----2----2----|--2------------------|--2----2----2----2----|
--0----0----4----4----|--4------------------|--0----0----4----4----|
------------4----4----|--2------------------|------------4----4----|
----------------------|---------------------|----------------------|


  Q    Q    Q    Q       Q    Q    Q    Q       Q    Q    Q    Q
--2----2----2----2----|--0----0----0----0----|--0----0----0----0----|
--3----3----3----3----|--1----1----1----1----|--1----1----1----1----|
--2----2----2----2----|--2----2----2----2----|--2----2----2----2----|
--4----4----4----4----|--2----2----2----2----|--2----2----2----2----|
--2----2----0----0----|--3----3----2----2----|--0----0----0----0----|
----------------------|----------------------|------------3----3----|


  Q    Q    Q    Q       Q    Q    Q    Q       Q    Q    Q    Q
--2----2----2----2----|--0----0----0----0----|--3----3----2----2----|
--3----3----3----3----|--0----0----0----0----|--0----0----3----3----|
--2----2----2----2----|--1----1----1----1----|--0----0----2----2----|
--0----0----0----0----|--2----2----2----2----|--0----0----0----0----|
--0----0----0----0----|--2----2----2----2----|--2----2----0----0----|
----------------------|--0----0----0----0----|--3----3--------------|


  Q    Q    Q    Q       Q    Q    Q    Q       Q    Q    Q    Q
--0----0----0----0----|--3----3----2----2----|--0----0----0----0----|
--0----0----0----0----|--0----0----3----3----|--0----0----0----0----|
--0----0----0----0----|--0----0----2----2----|--0----0----0----0----|
--2----2----2----2----|--0----0----0----0----|--2----2----2----2----|
--2----2----2----2----|--2----2----0----0----|--2----2----2----2----|
--0----0----0----0----|--3----3--------------|--0----0----0----0----|


  Q    Q    Q    Q       Q    Q    Q    Q       Q    Q    Q    Q
--3----3----2----2----|--0----0----0----0----|--2----2----2----2----|
--0----0----3----3----|--0----0----0----0----|--3----3----3----3----|
--0----0----2----2----|--0----0----0----0----|--2----2----2----2----|
--0----0----0----0----|--2----2----2----2----|--0----0----0----0----|
--2----2----0----0----|--2----2----2----2----|--0----0----0----0----|
--3----3--------------|--0----0----0----0----|----------------------|


  Q    Q    Q    Q       Q    Q    Q    Q       Q    Q    Q    Q
--0----0----0----0----|--0----0----0----0----|--2----2----2----2----|
--0----0----0----0----|--2----2----2----2----|--2----2----2----2----|
--1----1----1----1----|--2----2----2----2----|--2----2----2----2----|
--2----2----2----2----|--2----2----2----2----|--4----4----4----4----|
--2----2----2----2----|--0----0----0----0----|--4----4----4----4----|
--0----0----0----0----|----------------------|--2----2----2----2----|


  Q    Q    Q    Q       Q    Q    Q    Q       Q    Q    Q    Q
--0----0----0----0----|--2----2----2----2----|--0----0----0----0----|
--2----2----2----2----|--2----2----2----2----|--2----2----2----2----|
--2----2----2----2----|--2----2----2----2----|--2----2----2----2----|
--2----2----2----2----|--4----4----4----4----|--2----2----2----2----|
--0----0----0----0----|--4----4----4----4----|--0----0----0----0----|
----------------------|--2----2----2----2----|----------------------|


  Q    Q    Q    Q       Q    Q    Q    Q       Q    Q    Q    Q
--2----2----2----2----|--1----1----3----3----|--0----0----0----0----|
--2----2----2----2----|--1----1----0----0----|--2----2----2----2----|
--2----2----2----2----|--2----2----0----0----|--2----2----2----2----|
--4----4----4----4----|--3----3----0----0----|--2----2----2----2----|
--4----4----4----4----|--3----3----2----2----|--0----0----0----0----|
--2----2----2----2----|--1----1----3----3----|----------------------|


  Q    Q    Q    Q       Q    Q    H           Q    Q    Q    Q
--2----2----2----2----|--2------------------|--2----2----2----2----|
--3----3----3----3----|--3------------------|--3----3----3----3----|
--2----2----2----2----|--2------------------|--2----2----2----2----|
--0----0----4----4----|--4------------------|--0----0----4----4----|
------------4----4----|--2------------------|------------4----4----|
----------------------|---------------------|----------------------|


  Q    Q    Q    Q       Q    Q    Q    Q       Q    Q    Q    Q
--2----2----2----2----|--0----0----0----0----|--0----0----0----0----|
--3----3----3----3----|--1----1----1----1----|--1----1----1----1----|
--2----2----2----2----|--2----2----2----2----|--2----2----2----2----|
--4----4----4----4----|--2----2----2----2----|--2----2----2----2----|
--2----2----0----0----|--3----3----2----2----|--0----0----0----0----|
----------------------|----------------------|------------3----3----|


  Q    Q    Q    Q       Q    Q    Q    Q       Q    Q    Q    Q
--2----2----2----2----|--0----0----0----0----|--3----3----2----2----|
--3----3----3----3----|--0----0----0----0----|--0----0----3----3----|
--2----2----2----2----|--1----1----1----1----|--0----0----2----2----|
--0----0----0----0----|--2----2----2----2----|--0----0----0----0----|
--0----0----0----0----|--2----2----2----2----|--2----2----0----0----|
----------------------|--0----0----0----0----|--3----3--------------|


  Q    Q    Q    Q       Q    Q    Q    Q       Q    Q    Q    Q
--0----0----0----0----|--3----3----2----2----|--0----0----0----0----|
--0----0----0----0----|--0----0----3----3----|--0----0----0----0----|
--0----0----0----0----|--0----0----2----2----|--0----0----0----0----|
--2----2----2----2----|--0----0----0----0----|--2----2----2----2----|
--2----2----2----2----|--2----2----0----0----|--2----2----2----2----|
--0----0----0----0----|--3----3--------------|--0----0----0----0----|


  Q    Q    Q    Q       Q    Q    Q    Q       Q    Q    Q    Q
--3----3----2----2----|--0----0----0----0----|--2----2----2----2----|
--0----0----3----3----|--0----0----0----0----|--3----3----3----3----|
--0----0----2----2----|--0----0----0----0----|--2----2----2----2----|
--0----0----0----0----|--2----2----2----2----|--0----0----0----0----|
--2----2----0----0----|--2----2----2----2----|--0----0----0----0----|
--3----3--------------|--0----0----0----0----|----------------------|


  Q    Q    Q    Q       Q    Q    Q    Q       Q    Q    Q    Q
--0----0----0----0----|--0----0----4----4----|--2----2----2----2----|
--0----0----0----0----|--2----2----5----5----|--2----2----2----2----|
--1----1----1----1----|--2----2----6----6----|--2----2----2----2----|
--2----2----2----2----|--2----2----6----6----|--4----4----4----4----|
--2----2----2----2----|--0----0----4----4----|--4----4----4----4----|
--0----0----0----0----|------------4----4----|--2----2----2----2----|


  Q    Q    Q    Q       Q    Q    Q    Q       Q    Q    Q    Q
--0----0----4----4----|--2----2----2----2----|--0----0----4----4----|
--2----2----5----5----|--2----2----2----2----|--2----2----5----5----|
--2----2----6----6----|--2----2----2----2----|--2----2----6----6----|
--2----2----6----6----|--4----4----4----4----|--2----2----6----6----|
--0----0----4----4----|--4----4----4----4----|--0----0----4----4----|
------------4----4----|--2----2----2----2----|------------4----4----|


  Q    Q    Q    Q       Q    Q    Q    Q       Q    Q    Q    Q
--2----2----2----2----|--1----1----3----3----|--0----0----4----4----|
--2----2----2----2----|--1----1----0----0----|--2----2----5----5----|
--2----2----2----2----|--2----2----0----0----|--2----2----6----6----|
--4----4----4----4----|--3----3----0----0----|--2----2----6----6----|
--4----4----4----4----|--3----3----2----2----|--0----0----4----4----|
--2----2----2----2----|--1----1----3----3----|------------4----4----|


  Q    Q    Q    Q       Q    Q    Q    Q       Q    Q    Q    Q
--3----3----2----2----|--0----0----0----0----|--3----3----2----2----|
--0----0----3----3----|--0----0----0----0----|--0----0----3----3----|
--0----0----2----2----|--0----0----0----0----|--0----0----2----2----|
--0----0----0----0----|--2----2----2----2----|--0----0----0----0----|
--2----2----0----0----|--2----2----2----2----|--2----2----0----0----|
--3----3--------------|--0----0----0----0----|--3----3--------------|


  Q    Q    Q    Q       Q    Q    Q    Q       Q    Q    Q    Q
--0----0----0----0----|--3----3----2----2----|--0----0----0----0----|
--0----0----0----0----|--0----0----3----3----|--0----0----0----0----|
--0----0----0----0----|--0----0----2----2----|--0----0----0----0----|
--2----2----2----2----|--0----0----0----0----|--2----2----2----2----|
--2----2----2----2----|--2----2----0----0----|--2----2----2----2----|
--0----0----0----0----|--3----3--------------|--0----0----0----0----|


  Q    Q    Q    Q       Q    Q    Q    Q       Q    Q    Q    Q
--2----2----2----2----|--0----0----0----0----|--3----3----2----2----|
--3----3----3----3----|--0----0----0----0----|--0----0----3----3----|
--2----2----2----2----|--1----1----1----1----|--0----0----2----2----|
--0----0----0----0----|--2----2----2----2----|--0----0----0----0----|
--0----0----0----0----|--2----2----2----2----|--2----2----0----0----|
----------------------|--0----0----0----0----|--3----3--------------|


  Q    Q    Q    Q       Q    Q    Q    Q       Q    Q    Q    Q
--0----0----0----0----|--3----3----2----2----|--0----0----0----0----|
--0----0----0----0----|--0----0----3----3----|--0----0----0----0----|
--0----0----0----0----|--0----0----2----2----|--0----0----0----0----|
--2----2----2----2----|--0----0----0----0----|--2----2----2----2----|
--2----2----2----2----|--2----2----0----0----|--2----2----2----2----|
--0----0----0----0----|--3----3--------------|--0----0----0----0----|


  Q    Q    Q    Q       Q    Q    Q    Q       Q    Q    Q    Q
--3----3----2----2----|--0----0----0----0----|--3----3----2----2----|
--0----0----3----3----|--0----0----0----0----|--0----0----3----3----|
--0----0----2----2----|--0----0----0----0----|--0----0----2----2----|
--0----0----0----0----|--2----2----2----2----|--0----0----0----0----|
--2----2----0----0----|--2----2----2----2----|--2----2----0----0----|
--3----3--------------|--0----0----0----0----|--3----3--------------|


  Q    Q    Q    Q
--0----0----0----0----||
--0----0----0----0----||
--0----0----0----0----||
--2----2----2----2----||
--2----2----2----2----||
--0----0----0----0----||



Duration 🏷Legend
---------------
W - whole
H - half
Q - quarter
A chord diagramE MajorE - 8th
S - 16th
T - 32nd
X - 64th
. - note dotted
|-n-|  - n-tuplets


Tablature 🏷Legend
----------------
L - tied note
x - dead note
g - grace note
(n) - ghost note
> - accentuded note
NH - natural harmonic
AH - artificial harmonic
TH - tapped harmonic
SH - semi harmonic
PH - pitch harmonic
h - hammer on
p - pull off
b - bend
br - bendRelease
pb - preBend
pbr - preBendRelease
brb - bendReleaseBend
\n/ - tremolo bar dip
\n - tremolo bar dive
-/n - tremolo bar Release up
/n\ - tremolo bar inverted dip
/n - tremolo bar return
-\n - tremolo bar Release down
S - shift slide
s - legato slide
/ -  slide into from below or out of upwards
\ -  slide into from above or out of downwards
~ - vibrato
W - wide vibrato
tr - trill
TP - tremolo picking
T - tapping
S - slap
P - pop
< - fade in
^ - brush up
v - brush down

Other versions of Instant Karma

Instant karmaChords
Instant karma (Ver. 2)Chords

Almost there ...

Sign in to get your own page with links to favourite songs and more. You are just one click away...

Login with Facebook Login with Google