Log in

One click and you are in

Login with Facebook Login with Google

Why sign up and log in

Guitar Tabs Explorer
John Lennon bass tabs for Instant karma

Bass tabs

John Lennon


INTRO

G|---------------------------------|---------------------------------|
D|---------------------------------|---------------------------------|
A|---------------------------------|---------------------------------|
E|---------------------------------|---------------------------------|
VERSE

G|---------------------------------|---------------------------------|
D|---------------------------------|---------------------------------|
A|-0-----0---------0-----0---------|-------------------------0-------|
E|---------------------------------|-2-----2-------2-0-----2-------2-|

G|---------------------------------|---------------------------------|
D|---------------------------------|---------------------------------|
A|-0-----0---------0-----0---------|-------------------------0-------|
E|---------------------------------|-2-----2-------2-0-----2-------2-|

G|---------------------------------|---------------------------------|
D|---------------------------------|---------------------------------|
A|-0-----0---------0-----0---------|-------------------------0-------|
E|---------------------------------|-2-----2-------2-0-----2-------2-|

G|---------------------------------|---------------------------------|
D|---------------------------------|---------------------------------|
A|---------------------------------|-0---------------0-----2-4-------|
E|-1-----1---------3-----3---------|---------------------------------|


CHORUS

G|---------------------------------|---------------------------------|
D|---------------------------------|---------------------------------|
A|-5-----5---------4-----4---------|-2-----2-------2-0-----0-------0-|
E|---------------------------------|---------------------------------|

G|---------------------------------|---------------------------------|
D|---------------------------------|---------------------------------|
A|-5-----5---------4-----4---------|-2-----2-------2-0-----2-5-----2-|
E|---------------------------------|---------------------------------|

G|---------------------------------|---------------------------------|
D|---------------------------------|---------------------------------|
A|-3-----3---------2-----2---------|-0-----0-------------------------|
E|---------------------------------|-----------------3-------3-------|

G|---------------------------------|---------------------------------|
D|---------------------------------|-2-----2-------2-----------------|
A|-5-----5---------5-----0-5-----0-|-----------------2-------1-------|
E|---------------------------------|---------------------------------|

VERSE

G|---------------------------------|---------------------------------|
D|---------------------------------|---------------------------------|
A|-0-----0---------0-----0---------|-------------------------0-------|
E|---------------------------------|-2-----2-------2-0-----2-------2-|

G|---------------------------------|---------------------------------|
D|---------------------------------|---------------------------------|
A|-0-----0---------0-----0---------|-------------------------0-------|
E|---------------------------------|-2-----2-------2-0-----2-------2-|

G|---------------------------------|---------------------------------|
D|---------------------------------|---------------------------------|
A|-0-----0---------0-----0---------|-------------------------0-------|
E|---------------------------------|-2-----2-------2-0-----2-------2-|

G|---------------------------------|---------------------------------|
D|---------------------------------|---------------------------------|
A|---------------------------------|-0---------------0-----2-4-------|
E|-1-----1---------3-----3---------|---------------------------------|


CHORUS

G|---------------------------------|---------------------------------|
D|---------------------------------|---------------------------------|
A|-5-----5---------4-----4---------|-2-------------------------------|
E|---------------------------------|---------------------------------|

G|---------------------------------|---------------------------------|
D|---------------------------------|---------------------------------|
A|-5-----5---------4-----4---------|-2-----2---------0-------0-------|
E|---------------------------------|---------------------------------|

G|---------------------------------|---------------------------------|
D|---------------------------------|---------------------------------|
A|-3-----3---------2-----2---------|-0-----0-------0---------3-------|
E|---------------------------------|-----------------3-----5---------|

G|---------------------------------|---------------------------------|
D|---------------------------------|-2-------------------------------|
A|-5---------------5-------5-------|---------------------------------|
E|---------------------------------|-----------------0---------------|


BRIDGE

G|---------------------------------|---------------------------------|
D|-------------------------0-------|-2---------------2-----0---------|
A|-----------------0-----2---------|---------------2---------2-------|
E|-3-------------3-----------------|---------------------------------|

G|---------------------------------|---------------------------------|
D|-------------------------0-------|-2---------------2-----0---------|
A|-----------------0-----2---------|---------------2---------2-------|
E|-3-------------3-----------------|---------------------------------|

G|---------------------------------|---------------------------------|
D|-------------------------0-------|-2---------------2-----0---------|
A|-----------------0-----2---------|---------------2---------2-------|
E|-3-------------3-----------------|---------------------------------|

G|---------------------------------|---------------------------------|
D|-0---------------0-------0-------|-2-------------------------------|
A|---------------------------------|-------------------------2-------|
E|---------------------------------|-----------------0---------------|


VERSE

G|---------------------------------|---------------------------------|
D|---------------------------------|---------------------------------|
A|-0-----0---------0-----0---------|-------------------------0-------|
E|---------------------------------|-2-----2-------2-0-----2-------2-|

G|---------------------------------|---------------------------------|
D|---------------------------------|---------------------------------|
A|-0-----0---------0-----0---------|-------------------------0-------|
E|---------------------------------|-2-----2-------2-0-----2-------2-|

G|---------------------------------|---------------------------------|
D|---------------------------------|---------------------------------|
A|-0-----0---------0-----0---------|-------------------------0-------|
E|---------------------------------|-2-----2-------2-0-----2-------2-|

G|---------------------------------|---------------------------------|
D|---------------------------------|---------------------------------|
A|---------------------------------|-0---------------0-----2-4-------|
E|-1-----1---------3-----3---------|---------------------------------|


CHORUS

G|---------------------------------|---------------------------------|
D|---------------------------------|---------------------------------|
A|-5-----5---------4-----4---------|-2-------------------------------|
E|---------------------------------|---------------------------------|

G|---------------------------------|---------------------------------|
D|---------------------------------|---------------------------------|
A|-5-----5---------4-----4---------|-2-----2---------0-------0-------|
E|---------------------------------|---------------------------------|

G|---------------------------------|---------------------------------|
D|---------------------------------|---------------------------------|
A|-3-----3---------2-----2---------|-0-----0-------0---------3-------|
E|---------------------------------|-----------------3-----5---------|

G|---------------------------------|---------------------------------|
D|---------------------------------|-2-------------------------------|
A|-5---------------5-------5-------|---------------------------------|
E|---------------------------------|-----------------0---------------|


BRIDGE

G|---------------------------------|---------------------------------|
D|-------------------------0-------|-2---------------2-----0---------|
A|-----------------0-----2---------|---------------2---------2-------|
E|-3-------------3-----------------|---------------------------------|

G|---------------------------------|---------------------------------|
D|-------------------------0-------|-2---------------2-----0---------|
A|-----------------0-----2---------|---------------2---------2-------|
E|-3-------------3-----------------|---------------------------------|

G|---------------------------------|---------------------------------|
D|-------------------------0-------|-2---------------2-----0---------|
A|-----------------0-----2---------|---------------2---------2-------|
E|-3-------------3-----------------|---------------------------------|

G|---------------------------------|---------------------------------|
D|-0-------------0-0-----0-0-------|-2-------------2-2-----2-2-------|
A|---------------------------------|---------------------------------|
E|---------------------------------|---------------------------------|

INTERLUDE

G|---------------------------------|---------------------------------|
D|---------------------------------|---------------------------------|
A|---------------------------------|---------------------------------|
E|-5-----5-------5-4-----4-------4-|-2-----2-------2-0-----2-5-----2-|

G|---------------------------------|---------------------------------|
D|---------------------------------|---------------------------------|
A|---------------------------------|---------------------------------|
E|-5-----5-------5-4-----4-------4-|-2-----2-------2-0-----2-5-----2-|

G|---------------------------------|---------------------------------|
D|---------------------------------|---------------------------------|
A|---------------------------------|---------------------------------|
E|-5-----5-------5-4-----4-------4-|-2-----2-------2-0-----2-5-----2-|

G|---------------------------------|---------------------------------|
D|---------------------------------|---------------------------------|
A|---------------------------------|---------------------------------|
E|-1-----1---------3-----3---------|-5-----5---------3---------------|


CHORUS

G|---------------------------------|---------------------------------|
D|-------------------------------0-|-2-----2---------2-----0---------|
A|------------0--2-3---------------|-------------------------2-------|
E|-3-------------------------------|---------------------------------|

G|---------------------------------|---------------------------------|
D|-------------------------------0-|-2-----2---------2-----0---------|
A|------------0--2-3---------------|-------------------------2-------|
E|-3-------------------------------|---------------------------------|

G|---------------------------------|---------------------------------|
D|-------------------------------0-|-2-----2---------2-----0---------|
A|------------0--2-3---------------|-------------------------2-------|
E|-3-------------------------------|---------------------------------|

G|---------------------------------|---------------------------------|
D|---------------------------------|-2---------------2-------2-------|
A|-5---------------5-----0-5-------|---------------------------------|
E|---------------------------------|---------------------------------|


OUTRO

G||---------------------------------|---------------------------------|
D||-------------------------------0-|-2-----2---------2-----0---------|
A||------------0--2-3---------------|---------------2---------2-------|
E||-3-------------------------------|---------------------------------|

G|---------------------------------|---------------------------------||
D|-------------------------------0-|-2-----2---------2-----0---------||
A|------------0--2-3---------------|---------------2---------2-------||
E|-3-------------------------------|---------------------------------||
ⓘ Bass guitar tab for 'Instant Karma' by John Lennon, John Winston Lennon, a male classic rock artist from Liverpool. England. John Lennon was born in 1940. He passed away in 1980. John Lennon was known for his dreamy rock/pop music.

Almost there ...

Sign in to get your own page with links to favourite songs and more. You are just one click away...

Login with Facebook Login with Google