Log in

One click and you are in

Login with Facebook Login with Google

Why sign up and log in

Guitar Tabs Explorer
John Lennon chords for Imagine ukulele

Guitar chords with lyrics

PARTS:


Intro: (x2):
   C       C7  F
A|---3-------------2-----0--------------------|
E|---0----0---0----0-----1----0---0-----------|
C|---0--0---0---0--0--0--0--0---0---0---------|
G|---0-------------0-----2-------------2-3-4--|


Verse: (lines 1-4):
   C   C   C   C7  F   F   F
A|---3-----3-----3-----2-----0-----0-----0------------|
E|---0-----0-----0-----0-----1-----1-----1------------|
C|---0--0--0--0--0--0--0--0--0--0--0--0--0--0---------|
G|---0-----0-----0-----0-----2-----2-----2-----2-3-4--|


Verse: (line 5):
   F   F   Am  Am  Dm  Dm  F   F
A|---0-----0-----0-----0-----0-----0-----0-----0--|
E|---1-----1-----0-----0-----1-----1-----1-----1--|
C|---0--0--0--0--0--0--0--0--2--0--2--0--0--0--0--|
G|---2-----2-----2-----2-----2-----2-----2-----2--|


Verse: (line 6):
   G   G   G   C   G7
A|---2-----2-----2-----3-----2--|
E|---3-----3-----3-----0-----1--|
C|---2--0--2--0--2--0--0--0--2--|
G|---0-----0-----0-----0-----0--|


Chorus: (x4)on 4th time, end on the 1st C::
   F   F   G   G   C   C   E7  E7
A|---0-----0-----2-----2-----3-----3-----2-----2-----|
E|---1-----1-----3-----3-----0-----0-----0-----0-----|
C|---0--0--0--0--2--0--2--0--0--0--0--0--2--0--2--0--|
G|---2-----2-----0-----0-----0-----0-----1-----1-----|


Verse 1:
C         C7  F    C
  Imagine there's no heaven
      C7  F    C
It's easy if you try
   C7  F     C
No hell below us
      C7 F
Above us only sky
F    Am   Dm   F
Imagine all the people
G     C  G7
Living for today...

C         C7  F    C
  Imagine there's no countries
       C7  F  C
It isn't hard to do
        C7  F    C
Nothing to kill or die for
      C7  F
And no religion too
F    Am   Dm   F
Imagine all the people
G     C  G7
Living life in peace...


Chorus:
F     G      C    E7   F
  You may say I'm a dreamer
    G      C   E7   F
But I'm not the only one
      G      C   E7  F
I hope someday you'll join us
     G        C
And the world will be as one


Verse 2:
C       C7  F     C
  Imagine no possessions
      C7  F   C
I wonder if you can
         C7   F    C
No need for greed or hunger
       C7  F
A brotherhood of man
F    Am   Dm   F
Imagine all the people
G     C  G7
Living life in peace...


Chorus:
F     G      C    E7   F
  You may say I'm a dreamer
    G      C   E7   F
But I'm not the only one
      G      C   E7  F
I hope someday you'll join us
     G        C
And the world will be as one
ⓘ Guitar chords for 'Imagine Ukulele' by John Lennon, John Winston Lennon, a male classic rock artist from Liverpool. England. John Lennon was born in 1940. He passed away in 1980. John Lennon was known for his dreamy rock/pop music.

Almost there ...

Sign in to get your own page with links to favourite songs and more. You are just one click away...

Login with Facebook Login with Google