Log in

One click and you are in

Login with Facebook Login with Google

Why sign up and log in

Guitar Tabs Explorer
John Lennon bass tabs for Im losing you

Bass tabs

John Lennon

 INTRO
 00:01

G|---------------------------------|---------------------------------|
D|-----------------5---7-------7---|-----------------5---7-----------|
A|-0-------------------------------|-0---0---------------------------|
E|---------------------------------|---------------------------------|

G|---------------------------------|---------------------------------|
D|-----------------5---7-------7---|-----------------9---7-----------|
A|-0---0---------------------------|-0-------------------------------|
E|---------------------------------|---------------------------------|

 VERSE
 00:11

G|---------------------------------|---------------------------------|
D|-----------------7---------------|-----------------7---------------|
A|-0-------------------------------|-0---0---------------------------|
E|---------------------------------|---------------------------------|

G|---------------------------------|---------------------------------|
D|-6---------------6---------------|-----------------6---------------|
A|---------------------------------|---------------------------------|
E|-----------------------------4---|-4-------------------------------|

G|---------------------------------|---------------------------------|
D|-5---------------5---5-----------|-----------------------------5---|
A|---------------------------------|---------------------------------|
E|---------------------------------|-3---------------3---3-----------|

G|---------------------------------|---------------------------------|
D|---------------------------------|---------------------------------|
A|---------------------------------|---------------------------------|
E|-1---1---1---1---1---1---1---1---|-1---1---1---1---1---1---1---1---|

G|---------------------------------|---------------------------------|
D|---------------------------------|---------------------------------|
A|---------------------------------|---------------------------------|
E|-1---1---1---1---1---1---1---1---|-0---0---0---0---0---0---0---0---|

G|---------------------------------|---------------------------------|
D|-----------------5---7-----------|-----------------9---7-----------|
A|-0-------------------------------|-0-------------------------------|
E|---------------------------------|---------------------------------|

G|---------------------------------|---------------------------------|
D|-----------------5---7-----------|---------------/-12-\-7----------|
A|-0-------------------------------|-0-------------------------------|
E|---------------------------------|---------------------------------|

 VERSE
 00:46

G|---------------------------------|---------------------------------|
D|---------------------------------|-----------------7---------------|
A|-0---------------0---0-----------|-0-------------------------------|
E|---------------------------------|---------------------------------|

G|---------------------------------|---------------------------------|
D|-6---------------6---------------|-----------------6---------------|
A|---------------------------------|---------------------------------|
E|---------------------------------|-4---4---------------------------|

G|---------------------------------|---------------------5-----------|
D|-5---------------5---5-----------|----------------/7-------7\------|
A|---------------------------------|---------------------------------|
E|-----------------------------3---|-3-------------------------------|

G|---------------------------------|---------------------------------|
D|---------------------------------|---------------------------------|
A|---------------------------------|---------------------------------|
E|-1---1-------1---1---1---1---1---|-1---1---1---1---1---1---1---1---|

G|---------------------------------|---------------------------------|
D|---------------------------------|------------------------/7-------|
A|---------------------------------|---------------------------------|
E|-1---1---1---1---1---1---1---1---|-0---0-----------0---0-----------|

G|---------------------------------|---------------------------------|
D|-----------------5---7-----------|-----------------9---7-----------|
A|-0-------------------------------|-0-------------------------------|
E|---------------------------------|---------------------------------|

G|---------------------------------|----------------/9---7---5-------|
D|-----------------5---7-----------|---------------------------------|
A|-0-------------------------------|-0-------------------------------|
E|---------------------------------|---------------------------------|

 BRIDGE
 01:20

G|---------------------------------|---------------------------------|
D|---------------------------------|-5-------------------------------|
A|-3---3-----------3-----------3---|---------------------------------|
E|---------------------------------|-------------3---3-----------3---|

G|---------------------------------|---------------------------------|
D|---------------------------------|---------------------------------|
A|-3---------------3---3-----------|-------------------------7---5---|
E|---------------------------------|-0---------------0---0-----------|

G|---------------------------------|---------------------------------|
D|-7---------------5-H-7-----------|---------------------------------|
A|---------------------------------|-----------------5-H-7-----------|
E|---------------------------------|-0-------------------------------|

G|---------------------------------|---------------------------------|
D|---------------------------------|---------------------------------|
A|---------------------------------|---------------------------------|
E|-0---------------0---------------|-0---------------0---------------|

G|-----------------|
D|-----------------|
A|-----------------|
E|-0-0-0-0-0-------|

 CHORUS
 01:41

G|---------------------------------|---------------------------------|
D|-----------------5-H-7-----------|-----------------9---7-----------|
A|-0-------------------------------|-0-------------------------------|
E|---------------------------------|---------------------------------|

G|---------------------------------|----------------/7----5----------|
D|-----------------5-H-7-----------|---------------------------------|
A|-0-------------------------------|-0-------------------------------|
E|---------------------------------|---------------------------------|

 VERSE
 01:50

G|---------------------------------|---------------------------------|
D|-----------------7---7-----------|-7---------------7---7-----------|
A|-0-------------------------------|---------------------------------|
E|---------------------------------|---------------------------------|

G|---------------------------------|---------------------------------|
D|-6---------------6---6-----------|-6---------------6---6-----------|
A|---------------------------------|---------------------------------|
E|---------------------------------|---------------------------------|

G|---------------------------------|---------------------------------|
D|-5---------------5---5-----------|-5-------------------5------/9---|
A|---------------------------------|-----------------5---------------|
E|---------------------------------|---------------------------------|

G|---------------------------------|---------------------------------|
D|---------------------------------|---------------------------------|
A|---------------------------------|---------------------------------|
E|-1---1-----------1---1-------1---|-1---1-------1---1---1---1---1---|

G|---------------------------------|---------------------------------|
D|---------------------------------|---------------------------------|
A|---------------------------------|---------------------------------|
E|-1---1-----------1---1-------1---|-0---0-----------0---0---0---0---|

G|---------------------------------|---------------------------------|
D|-----------------5---7-----------|-----------------9---7-----------|
A|-0-------------------------------|-0-------------------------------|
E|---------------------------------|---------------------------------|

G|---------------------------------|------/14--------9---7---5-------|
D|-----------------5---7-----------|---------------------------------|
A|-0-------------------------------|-0-------------------------------|
E|---------------------------------|---------------------------------|

 GUITAR SOLO
 02:25

G|---------------------------------|---------------------------------|
D|-7---------------7---------------|-----------------7---------------|
A|-----------------------------0---|-0---0---------------------------|
E|---------------------------------|---------------------------------|

G|---------------------------------|---------------------------------|
D|-6---------------6---6-----------|-----------------6---6-----------|
A|---------------------------------|---------------------------------|
E|---------------------------------|-4-------------------------------|

G|---------------------------------|---------------------------------|
D|-5---------------5---5-----------|-----------------7---6---5-------|
A|---------------------------------|---------------------------------|
E|---------------------------------|-3---3---------------------------|

G|---------------------------------|---------------------------------|
D|---------------------------------|---------------------------------|
A|---------------------------------|---------------------------------|
E|-1---------------1---1-----------|-1---1-----------1---------------|

G|---------------------------------|---------------------------------|
D|---------------------------------|---------------------------------|
A|---------------------------------|---------------------------------|
E|-1---------------1---1---1---1---|-0---0-----------0---0---0-------|

 CHORUS
 02:49

G|---------------------------------|---------------------------------|
D|-----------------5-H-7-----------|-----------------9---7-----------|
A|-0-------------------------------|-0-------------------------------|
E|---------------------------------|---------------------------------|

G|---------------------------------|-----------------9---7---5-------|
D|-----------------5---7-----------|---------------------------------|
A|-0-------------------------------|-0-------------------------------|
E|---------------------------------|---------------------------------|

 VERSE
 02:59

G|---------------------------------|---------9---------------9-------|
D|-7---------------7---------------|-7---------------7---------------|
A|---------------------------------|---------------------------------|
E|---------------------------------|---------------------------------|

G|---------------------------------|---------------------------------|
D|-6---------------6---6-----------|-----------------6---6-----------|
A|---------------------------------|---------------------------------|
E|---------------------------------|-4---4---------------------------|

G|---------------------------------|---------------------------------|
D|-5---------------5---5-----------|---------------------------------|
A|---------------------------------|---------------------0-----------|
E|---------------------------------|-3---3-----------3-------2-------|

G|---------------------------------|---------------------------------|
D|---------------------------------|---------------------------------|
A|---------------------------------|---------------------------------|
E|-1---1-----------1---1-------1---|-1---------------1---1-------1---|

G|---------------------------------|---------------------------------|
D|---------------------------------|---------------------------------|
A|---------------------------------|---------------------------------|
E|-1---1-----------1---1-----------|-0---0-----------0---0-----------|

G|---------------------------------|---------------------------------|
D|-----------------5-H-7-----------|-----------------9---7-----------|
A|-0-------------------------------|-0-------------------------------|
E|---------------------------------|---------------------------------|

G|---------------------------------|---------x-------9---7---5-------|
D|-----------------5-H-7-----------|---------------------------------|
A|-0-------------------------------|-0-------------------------------|
E|---------------------------------|---------------------------------|

 OUTRO
 03:33

G|---------------------------------|---------------------------------|
D|-----------------5---7-----------|-----------------5---7-----------|
A|-0-------------------------------|-0-------------------------------|
E|---------------------------------|---------------------------------|

G|---------------------------------|---------------------------------|
D|-----------------5---7-----------|-----------------9---7---9-------|
A|-0---0---------------------------|-0-------------------------------|
E|---------------------------------|---------------------------------|

G|---------------------------------|---------------------------------|
D|-----------------5---7-----------|-----------------9---7-----------|
A|-0-------------------------------|-0-------------------------------|
E|---------------------------------|---------------------------------|

G|---------------------------------|---------------------------------|
D|-----------------5-H-7-----------|-----------------9---7-----------|
A|-0-------------------------------|-0-------------------------------|

ⓘ Bass guitar tab for 'Im Losing You' by John Lennon, John Winston Lennon, a male classic rock artist from Liverpool. England. John Lennon was born in 1940. He passed away in 1980. John Lennon was known for his dreamy rock/pop music.

Almost there ...

Sign in to get your own page with links to favourite songs and more. You are just one click away...

Login with Facebook Login with Google