Log in

One click and you are in

Login with Facebook Login with Google

Why sign up and log in

Guitar Tabs Explorer
John Lennon tabs for Give me some truth

Guitar tabs

My interpretation of 'Give Me Some Truth', from the album 'Imagine'.

~~~~~~~~~~~~~~~~~~~~~~~~~~~~~~~~~~~~~~~~~~~~~~~~~~~~~~~~~~~~~~~~~~~~~~


verse:

      A chord diagramFF         A chord diagramA minorAm       A chord diagramF7F7                A chord diagramBb majorBb    A chord diagramC majorC     A chord diagramBb majorBb    A chord diagramC majorC
d  |------------------7--------7----------------8-----10----8-----10-|
a  |--------12------7--------6---6---6-5------8-----10----8-----10---|
f# |------11------6--------6-------6--------8-----10----8-----10-----|
d  |----10-------------------------------/8----/10---/8----/10-------|
a  |--8---------7--------6-------------------------------------------|
d  |-----------------------------------------------------------------|


chorus:

      A chord diagramEb MajorEb                                   A chord diagramDbDb
d  |------------------------------------|----------------------------|
a  |------------------------------------|--------11--------11--------|
f# |------------13------------13--------|------11--9h11--11----------|
d  |------13--13--13------13----13--13--|----11--------11------------|
a  |----13--13------13--13--13----13----|----------------------------|
d  |--13--------------13----------------|--11------------------------|

      A chord diagramBb majorBb                   A chord diagramC majorC
d  |----------6---------|--------8-------------|
a  |--------6---6-------|------8---8-----------|
f# |------6-------6-----|----8-------8---------|
d  |----6-----------6/--|--------------8-------|
a  |--------------------|--------------8h10-8--|
d  |--6-----------------|--8-------------------|

~~~~~~~~~~~~~~~~~~~~~~~~~~~~~~~~~~~~~~~~~~~~~~~~~~~~~~~~~~~~~~~~~~~~~~

lead (slide guitar, played over the verse):

       A chord diagramFF  A chord diagramA minorAm A chord diagramF7F7                     A chord diagramBb majorBb           A chord diagramC majorC   A chord diagramBB            A chord diagramC majorC
d  |---------------------------------------------10------------------|
a  |--/15-15-15----15/17\-----------8----------------8---------------|
f# |------------15-------14/15--------8\7---8/10-------8\7---6/8--6--|
d  |---------------------------15---------8----------------8---------|
a  |-----------------------------------------------------------------|
d  |-----------------------------------------------------------------|

d  |----------------------15-17\--------8\6------10------------------|
a  |------15-15-15--17\---------/15-----8\6--8---------8-------------|
f# |--/15--------------15-----------15--------/10---6/8---/8-/8-/8-6-|
d  |-----------------------------------------------------------------|
a  |-----------------------------------------------------------------|
d  |-----------------------------------------------------------------|

~~~~~~~~~~~~~~~~~~~~~~~~~~~~~~~~~~~~~~~~~~~~~~~~~~~~~~~~~~~~~~~~~~~~~~

🏷Legend:
/ = slide up
\ = slide down
h = hammer on
p = pull off
b = bend
r = relax

ⓘ Guitar tab for 'Give Me Some Truth' by John Lennon, John Winston Lennon, a male classic rock artist from Liverpool. England. John Lennon was born in 1940. He passed away in 1980. John Lennon was known for his dreamy rock/pop music.

Almost there ...

Sign in to get your own page with links to favourite songs and more. You are just one click away...

Login with Facebook Login with Google