Log in

One click and you are in

Login with Facebook Login with Google

Why sign up and log in

Guitar Tabs Explorer
John Lennon bass tabs for Cold turkey (Ver. 2)

Bass tabs

  • Tuning: Standard tuning
  • Difficulty: Intermediate
-----------------------------------------------------------------------------
                     Artist - John Lennon
                     **********************
                      Song - Cold Turkey
                     ********************
                  Album - The John Lennon Collection
                 ************************************
                     Tabbed By - Ayreon77
                     **********************
-----------------------------------------------------------------------------

Tuning = Standard



INTRO
******
00:02
G|-----------|  G|---------------|
D|-----------|  D|---------------|
A|-0-0--0--0-|  A|--h--0-0--0--0-|
E|-----------|  E|-2-3-----------|X3


--------------------

VERSE 1
********
G|---------------|
D|---------------|
A|--h--0-0--0--0-|
E|-2-3-----------|x16


--------------------
00:43

CHORUS
*******
G|---------------------------------|-----------------------|
D|---------------------------------|---------------------5-|
A|-0-1-3-3-3-3-3-3-3-3-3-3-3-3-3-3-|-----------------------|
E|---------------------------------|-0-1-2-3-3-3-3-3-3-3---|


--------------------
00:52

BREAK
******
G|-----------|  G|---------------|
D|-----------|  D|---------------|
A|-0-0--0--0-|  A|--h--0-0--0--0-|
E|-----------|  E|-2-3-----------|X3


--------------------
01:00

VERSE 2
********
G|-------------|---------5---|
D|---------7---|-------------|
A|--h--0-0---0-|--h--0-0---0-|
E|-2-3---------|-2-3---------|X8


--------------------
01:33

CHORUS
*******
G|---------------------------------|-----------------------|
D|---------------------------------|---------------------5-|
A|-0-1-3-3-3-3-3-3-3-3-3-3-3-3-3-3-|-----------------------|
E|---------------------------------|-0-1-2-3-3-3-3-3-3-3---|


--------------------
01:43

BREAK
******
G|-----------|  G|---------------|
D|-----------|  D|---------------|
A|-0-0--0--0-|  A|--h--0-0--0--0-|
E|-----------|  E|-2-3-----------|X3


--------------------
01:51

SOLO
*****
G|-------------|---------5---|
D|---------7---|-------------|
A|--h--0-0---0-|--h--0-0---0-|
E|-2-3---------|-2-3---------|X4


--------------------
02:07

CHORUS
*******
G|---------------------------------|-----------------------|
D|---------------------------------|---------------------5-|
A|-0-1-3-3-3-3-3-3-3-3-3-3-3-3-3-3-|-----------------------|
E|---------------------------------|-0-1-2-3-3-3-3-3-3-3---|


--------------------
02:16

BREAK
******
G|-----------|  G|---------------|
D|-----------|  D|---------------|
A|-0-0--0--0-|  A|--h--0-0--0--0-|
E|-----------|  E|-2-3-----------|X3


--------------------
02:24

VERSE 3
********
G|-------------|---------5---|
D|---------7---|-------------|
A|--h--0-0---0-|--h--0-0---0-|
E|-2-3---------|-2-3---------|X8


--------------------
02:57

CHORUS
*******
G|---------------------------------|-----------------------|
D|---------------------------------|---------------------5-|
A|-0-1-3-3-3-3-3-3-3-3-3-3-3-3-3-3-|-----------------------|
E|---------------------------------|-0-1-2-3-3-3-3-3-3-3---|


--------------------
03:06

BREAK
******
G|-----------|  G|---------------|
D|-----------|  D|---------------|
A|-0-0--0--0-|  A|--h--0-0--0--0-|
E|-----------|  E|-2-3-----------|X3


--------------------
03:15
The weird ahhhhh bit. must be cold turkeying there :) it changes a little but you can Ad lib.

G|-------------|---------5---|
D|---------7---|-------------|
A|--h--0-0---0-|--h--0-0---0-|
E|-2-3---------|-2-3---------|X24


ENJOY......
ⓘ This is the 2nd version of bass guitar tab for 'Cold Turkey' by John Lennon, John Winston Lennon, a male classic rock artist from Liverpool. England. John Lennon was born in 1940. He passed away in 1980. John Lennon was known for his dreamy rock/pop music.

Other versions of Cold Turkey

Cold turkeyBass tabs

Almost there ...

Sign in to get your own page with links to favourite songs and more. You are just one click away...

Login with Facebook Login with Google