Log in

One click and you are in

Login with Facebook Login with Google

Why sign up and log in

Guitar Tabs Explorer
John Lennon tabs for Aisumasen

Guitar tabs

Album:  Mind Games
Track:  Aisumasen (solo)

This is my interpretation of Lennon's lovely solo.
I was going to indicate chord changes but lost patience.

~~~~~~~~~~~~~~~~~~~~~~~~~~~~~~~~~~~~~~~~~~~~~~~~~~~~~~~~~~~~~~~~~~~~

solo:

e  |------14b15r14p12----------------------------------------------|
b  |-------------------14--12b14-14r12-----------------------------|
g  |-----------------------------------11--11b13~------------------|
d  |---------------------------------------------------------------|
a  |---------------------------------------------------------------|
e  |---------------------------------------------------------------|
e  |---------------------------------------------------------------|
b  |--12-----------------------------------------------------------|
g  |-----11b13r11-b13-(wild)--11p9---------------------------------|
d  |--------------------------------11p9---------------------------|
a  |-------------------------------------11p9\7-9/11\9\7/9\7/9\7---|
e  |---------------------------------------------------------------|


e  |------12-12----12/14-12h14~--12--12\9-9-12-9-------------------|
b  |--/14-------14--------------------------------12---------------|
g  |--------------------------------------------------11b13r11p9---|
d  |---------------------------------------------------------------|
a  |---------------------------------------------------------------|
e  |---------------------------------------------------------------|


e  |---------------------------------------------------------------|
b  |---------------------------------------------------------------|
g  |--11----9----------------------------------------------------9-|
d  |-----11----9--11----9---------------------------------9--11----|
a  |-----------------11----9--11----9--------------7/9-11----------|
e  |-----------------------------12----9--12--7--9-----------------|

e  |--------------12--14-14b16-14b16-14b16-14b16-14~---14-14b16----|
b  |--------12-14--------------------------------------------------|
g  |--11/13--------------------------------------------------------|
d  |---------------------------------------------------------------|
a  |---------------------------------------------------------------|
e  |---------------------------------------------------------------|


e  |--14b17--14b16--12--12------12b14-12-12~-----------------------|
b  |------------------------14----------------/14-/14-14b15r14p12--|
g  |---------------------------------------------------------------|
d  |---------------------------------------------------------------|
a  |---------------------------------------------------------------|
e  |---------------------------------------------------------------|


e  |---------------------------------------------------------------|
b  |--12~---------14b15--14b15---12~-h14b15------15---------14-----|
g  |-------13-11------------------------------------14-------------|
d  |-----------------------------------------/16--------/14--------|
a  |---------------------------------------------------------------|
e  |---------------------------------------------------------------|


e  |---------------------------------------------------------------|
b  |--12b14r12p10--10--12b14-12~--12\10-10-10-9-10-10/12~----------|
g  |---------------------------------------------------------------|
d  |---------------------------------------------------------------|
a  |---------------------------------------------------------------|
e  |---------------------------------------------------------------|


e  |--------12--14b16-14b16r15r14~---14b16r14p12--14-14b16-12-12~--|
b  |--12/14--------------------------------------------------------|
g  |---------------------------------------------------------------|
d  |---------------------------------------------------------------|
a  |---------------------------------------------------------------|
e  |---------------------------------------------------------------|


e  |-------/14-/14-/16-12----12------------------------------------|
b  |--/14-----------------14----14--12-----------------------------|
g  |------------------------------------13-12-11----11/13-11~------|
d  |---------------------------------------------14----------------|
a  |---------------------------------------------------------------|
e  |---------------------------------------------------------------|


e  |----------------12---------------------------------------------|
b  |-------10-12b14----12b14r12p10-12b14-12b14-10~-------------15--|
g  |--/11---------------------------------------------12-14b16-----|
d  |---------------------------------------------------------------|
a  |---------------------------------------------------------------|
e  |---------------------------------------------------------------|

~~~~~~~~~~~~~~~~~~~~~~~~~~~~~~~~~~~~~~~~~~~~~~~~~~~~~~~~~~~~~~~~~~~~
🏷Legend:

b = bend
r = relax
p = pull off
h = hammer on
/ = slide up
\ = slide down
ⓘ Guitar tab for 'Aisumasen' by John Lennon, John Winston Lennon, a male classic rock artist from Liverpool. England. John Lennon was born in 1940. He passed away in 1980. John Lennon was known for his dreamy rock/pop music.

Almost there ...

Sign in to get your own page with links to favourite songs and more. You are just one click away...

Login with Facebook Login with Google