Log in

One click and you are in

Login with Facebook Login with Google

Why sign up and log in

Guitar Tabs Explorer
The Lemonheads guitar chords for Somethings missing

Guitar chords with lyrics

Verse:

   A chord diagramD5D5      A chord diagramF#5F#5        A chord diagramC5C5      A chord diagramG5G5           A chord diagramD5D5      A chord diagramB5B5         A chord diagramA5A5      A chord diagramG5G5
e|---------------------------------------|---------------------------------------|
B|---------------------------------------|---------------------------------------|
G|-7-----7------------5-----5------------|-7-----7-4-----4----2-----2------------|
D|-7-----7-4-----4----5-----5-5-----5----|-7-----7-4-----4----2-----2-5-----5----|
A|-5-----5-4-----4----3-----3-5-----5----|-5-----5-2-----2----0-----0-5-----5----|
E|---------2-----2------------3-----3----|----------------------------3-----3----|
   Its no trick to decide on your own     (Somethings missing)

   A chord diagramD5D5      A chord diagramF#5F#5        A chord diagramC5C5      A chord diagramG5G5           A chord diagramD5D5      A chord diagramB5B5         A chord diagramA5A5      A chord diagramG5G5
e|---------------------------------------|---------------------------------------|
B|---------------------------------------|---------------------------------------|
G|-7-----7------------5-----5------------|-7-----7-4-----4----2-----2------------|
D|-7-----7-4-----4----5-----5-5-----5----|-7-----7-4-----4----2-----2-5-----5----|
A|-5-----5-4-----4----3-----3-5-----5----|-5-----5-2-----2----0-----0-5-----5----|
E|---------2-----2------------3-----3----|----------------------------3-----3----|
   You feel it when you feel fine later on (Somethings missing)

   A chord diagramD5D5      A chord diagramF#5F#5        A chord diagramC5C5      A chord diagramG5G5           A chord diagramD5D5      A chord diagramB5B5         A chord diagramA5A5      A chord diagramG5G5
e|---------------------------------------|---------------------------------------|
B|---------------------------------------|---------------------------------------|
G|-7-----7------------5-----5------------|-7-----7-4-----4----2-----2------------|
D|-7-----7-4-----4----5-----5-5-----5----|-7-----7-4-----4----2-----2-5-----5----|
A|-5-----5-4-----4----3-----3-5-----5----|-5-----5-2-----2----0-----0-5-----5----|
E|---------2-----2------------3-----3----|----------------------------3-----3----|
   A chord diagramA majorA shower you cant depend on at all      (Somethings missing)

   A chord diagramD5D5      A chord diagramF#5F#5        A chord diagramC5C5      A chord diagramG5G5           A chord diagramD5D5      A chord diagramB5B5         A chord diagramA5A5      A chord diagramG5G5
e|---------------------------------------|---------------------------------------|
B|---------------------------------------|---------------------------------------|
G|-7-----7------------5-----5------------|-7-----7-4-----4----2-----2------------|
D|-7-----7-4-----4----5-----5-5-----5----|-7-----7-4-----4----2-----2-5-----5----|
A|-5-----5-4-----4----3-----3-5-----5----|-5-----5-2-----2----0-----0-5-----5----|
E|---------2-----2------------3-----3----|----------------------------3-----3----|
   Its too hot then its too cold then its warm (Somethings missing)


Pre Chorus:

   A chord diagramG5G5
e|-------------------------------------|-------------------------------------|
B|-------------------------------------|-------------------------------------|
G|-------------------------------------|-------------------------------------|
D|-5-5-5-5-5-5-5-5-5-5-5-5-5-5-5-5-5-5-|-5-5-5-5-5-5-5-5-5-5-5-5-5-5-5-5-5-5-|
A|-5-5-5-5-5-5-5-5-5-5-5-5-5-5-5-5-5-5-|-5-5-5-5-5-5-5-5-5-5-5-5-5-5-5-5-5-5-|
E|-3-3-3-3-3-3-3-3-3-3-3-3-3-3-3-3-3-3-|-3-3-3-3-3-3-3-3-3-3-3-3-3-3-3-3-3-3-|
   Somethings missing                    Somethings missing

e|-------------------------------------|
B|-------------------------------------|
G|-------------------------------------|
D|-5-5-5-5-5-5-5-5-5-5-5-5-5-5-5-5-5-5-|
A|-5-5-5-5-5-5-5-5-5-5-5-5-5-5-5-5-5-5-|
E|-3-3-3-3-3-3-3-3-3-3-3-3-3-3-3-3-3-3-|
   Somethings missing


Chorus:

   A chord diagramD5D5      A chord diagramC5C5         A chord diagramG5G5      A chord diagramE5E5           A chord diagramD5D5      A chord diagramC5C5         A chord diagramG5G5      A chord diagramE5E5
e|---------------------------------------|---------------------------------------|
B|---------------------------------------|---------------------------------------|
G|-7-----7-5-----5-----------------------|-7-----7-5-----5-----------------------|
D|-7-----7-5-----5----5-----5-2-----2----|-7-----7-5-----5----5-----5-2-----2----|
A|-5-----5-3-----3----5-----5-2-----2----|-5-----5-3-----3----5-----5-2-----2----|
E|--------------------3-----3-0-----0----|--------------------3-----3-0-----0----|
   Somethings missing from my life

   A chord diagramD5D5      A chord diagramC5C5         A chord diagramG5G5      A chord diagramE5E5           A chord diagramD5D5      A chord diagramC5C5         A chord diagramG5G5      A chord diagramE5E5
e|---------------------------------------|---------------------------------------|
B|---------------------------------------|---------------------------------------|
G|-7-----7-5-----5-----------------------|-7-----7-5-----5-----------------------|
D|-7-----7-5-----5----5-----5-2-----2----|-7-----7-5-----5----5-----5-2-----2----|
A|-5-----5-3-----3----5-----5-2-----2----|-5-----5-3-----3----5-----5-2-----2----|
E|--------------------3-----3-0-----0----|--------------------3-----3-0-----0----|
   Somethings missing from my life


Verse:

   A chord diagramD5D5      A chord diagramF#5F#5        A chord diagramC5C5      A chord diagramG5G5           A chord diagramD5D5      A chord diagramB5B5         A chord diagramA5A5      A chord diagramG5G5
e|---------------------------------------|---------------------------------------|
B|---------------------------------------|---------------------------------------|
G|-7-----7------------5-----5------------|-7-----7-4-----4----2-----2------------|
D|-7-----7-4-----4----5-----5-5-----5----|-7-----7-4-----4----2-----2-5-----5----|
A|-5-----5-4-----4----3-----3-5-----5----|-5-----5-2-----2----0-----0-5-----5----|
E|---------2-----2------------3-----3----|----------------------------3-----3----|
   The things I know multiply and divide   (Somethings missing)

   A chord diagramD5D5      A chord diagramF#5F#5        A chord diagramC5C5      A chord diagramG5G5           A chord diagramD5D5      A chord diagramB5B5         A chord diagramA5A5      A chord diagramG5G5
e|---------------------------------------|---------------------------------------|
B|---------------------------------------|---------------------------------------|
G|-7-----7------------5-----5------------|-7-----7-4-----4----2-----2------------|
D|-7-----7-4-----4----5-----5-5-----5----|-7-----7-4-----4----2-----2-5-----5----|
A|-5-----5-4-----4----3-----3-5-----5----|-5-----5-2-----2----0-----0-5-----5----|
E|---------2-----2------------3-----3----|----------------------------3-----3----|
   One I know one I cant just decide       (Somethings missing)

   A chord diagramD5D5      A chord diagramF#5F#5        A chord diagramC5C5      A chord diagramG5G5           A chord diagramD5D5      A chord diagramB5B5         A chord diagramA5A5      A chord diagramG5G5
e|---------------------------------------|---------------------------------------|
B|---------------------------------------|---------------------------------------|
G|-7-----7------------5-----5------------|-7-----7-4-----4----2-----2------------|
D|-7-----7-4-----4----5-----5-5-----5----|-7-----7-4-----4----2-----2-5-----5----|
A|-5-----5-4-----4----3-----3-5-----5----|-5-----5-2-----2----0-----0-5-----5----|
E|---------2-----2------------3-----3----|----------------------------3-----3----|
   Been here before its gonna come back again (Somethings missing)

   A chord diagramD5D5      A chord diagramF#5F#5        A chord diagramC5C5      A chord diagramG5G5           A chord diagramD5D5      A chord diagramB5B5         A chord diagramA5A5      A chord diagramG5G5
e|---------------------------------------|---------------------------------------|
B|---------------------------------------|---------------------------------------|
G|-7-----7------------5-----5------------|-7-----7-4-----4----2-----2------------|
D|-7-----7-4-----4----5-----5-5-----5----|-7-----7-4-----4----2-----2-5-----5----|
A|-5-----5-4-----4----3-----3-5-----5----|-5-----5-2-----2----0-----0-5-----5----|
E|---------2-----2------------3-----3----|----------------------------3-----3----|
   Been here before its gonna come back my freind (Somethings missing)


Pre Chorus:

   A chord diagramG5G5
e|-------------------------------------|-------------------------------------|
B|-------------------------------------|-------------------------------------|
G|-------------------------------------|-------------------------------------|
D|-5-5-5-5-5-5-5-5-5-5-5-5-5-5-5-5-5-5-|-5-5-5-5-5-5-5-5-5-5-5-5-5-5-5-5-5-5-|
A|-5-5-5-5-5-5-5-5-5-5-5-5-5-5-5-5-5-5-|-5-5-5-5-5-5-5-5-5-5-5-5-5-5-5-5-5-5-|
E|-3-3-3-3-3-3-3-3-3-3-3-3-3-3-3-3-3-3-|-3-3-3-3-3-3-3-3-3-3-3-3-3-3-3-3-3-3-|
   Somethings missing                    Somethings missing

e|-------------------------------------|
B|-------------------------------------|
G|-------------------------------------|
D|-5-5-5-5-5-5-5-5-5-5-5-5-5-5-5-5-5-5-|
A|-5-5-5-5-5-5-5-5-5-5-5-5-5-5-5-5-5-5-|
E|-3-3-3-3-3-3-3-3-3-3-3-3-3-3-3-3-3-3-|
   Somethings missing


Chorus:

   A chord diagramD5D5      A chord diagramC5C5         A chord diagramG5G5      A chord diagramE5E5           A chord diagramD5D5      A chord diagramC5C5         A chord diagramG5G5      A chord diagramE5E5
e|---------------------------------------|---------------------------------------|
B|---------------------------------------|---------------------------------------|
G|-7-----7-5-----5-----------------------|-7-----7-5-----5-----------------------|
D|-7-----7-5-----5----5-----5-2-----2----|-7-----7-5-----5----5-----5-2-----2----|
A|-5-----5-3-----3----5-----5-2-----2----|-5-----5-3-----3----5-----5-2-----2----|
E|--------------------3-----3-0-----0----|--------------------3-----3-0-----0----|
   Somethings missing from my life

   A chord diagramD5D5      A chord diagramC5C5         A chord diagramG5G5      A chord diagramE5E5           A chord diagramD5D5      A chord diagramC5C5         A chord diagramG5G5      A chord diagramE5E5
e|---------------------------------------|---------------------------------------|
B|---------------------------------------|---------------------------------------|
G|-7-----7-5-----5-----------------------|-7-----7-5-----5-----------------------|
D|-7-----7-5-----5----5-----5-2-----2----|-7-----7-5-----5----5-----5-2-----2----|
A|-5-----5-3-----3----5-----5-2-----2----|-5-----5-3-----3----5-----5-2-----2----|
E|--------------------3-----3-0-----0----|--------------------3-----3-0-----0----|
   I aint quiet deep inside

   A chord diagramD5D5      A chord diagramC5C5         A chord diagramG5G5      A chord diagramE5E5           A chord diagramD5D5      A chord diagramC5C5         A chord diagramG5G5      A chord diagramE5E5
e|---------------------------------------|---------------------------------------|
B|---------------------------------------|---------------------------------------|
G|-7-----7-5-----5-----------------------|-7-----7-5-----5-----------------------|
D|-7-----7-5-----5----5-----5-2-----2----|-7-----7-5-----5----5-----5-2-----2----|
A|-5-----5-3-----3----5-----5-2-----2----|-5-----5-3-----3----5-----5-2-----2----|
E|--------------------3-----3-0-----0----|--------------------3-----3-0-----0----|
   I aint even on my side

   A chord diagramD5D5      A chord diagramC5C5         A chord diagramG5G5      A chord diagramE5E5           A chord diagramD5D5      A chord diagramC5C5         A chord diagramG5G5      A chord diagramE5E5
e|---------------------------------------|---------------------------------------|
B|---------------------------------------|---------------------------------------|
G|-7-----7-5-----5-----------------------|-7-----7-5-----5-----------------------|
D|-7-----7-5-----5----5-----5-2-----2----|-7-----7-5-----5----5-----5-2-----2----|
A|-5-----5-3-----3----5-----5-2-----2----|-5-----5-3-----3----5-----5-2-----2----|
E|--------------------3-----3-0-----0----|--------------------3-----3-0-----0----|
   Somethings missing from my life


Middle/break:

   A chord diagramG#5G#5                 A chord diagramB5B5    A chord diagramA5A5          A chord diagramF#5F#5   A chord diagramG#5G#5
e|-------------------------------------|-------------------------------------|
B|-------------------------------------|-------------------------------------|
G|---------------------4-4-4-2---------|-------------------------------------|
D|-6-----6-------------4-4-4-2---------|-4-----6-----------------------------|
A|-6-----6-------------2-2-2-0---------|-4-----6-----------------------------|
E|-4-----4-----------------------------|-2-----4-----------------------------|

   A chord diagramG#5G#5                 A chord diagramB5B5    A chord diagramA5A5          A chord diagramF#5F#5   A chord diagramG#5G#5
e|-------------------------------------|-------------------------------------|
B|-------------------------------------|-------------------------------------|
G|---------------------4-4-4-2---------|-------------------------------------|
D|-6-----6-------------4-4-4-2---------|-4-----6-----------------------------|
A|-6-----6-------------2-2-2-0---------|-4-----6-----------------------------|
E|-4-----4-----------------------------|-2-----4-----------------------------|

   A chord diagramG#5G#5                 A chord diagramB5B5    A chord diagramA5A5          A chord diagramF#5F#5   A chord diagramG#5G#5
e|-------------------------------------|-------------------------------------|
B|-------------------------------------|-------------------------------------|
G|---------------------4-4-4-2---------|-------------------------------------|
D|-6-----6-------------4-4-4-2---------|-4-----6-----------------------------|
A|-6-----6-------------2-2-2-0---------|-4-----6-----------------------------|
E|-4-----4-----------------------------|-2-----4-----------------------------|

   A chord diagramG#5G#5                 A chord diagramB5B5    A chord diagramA5A5          A chord diagramF#5F#5   A chord diagramG#5G#5
e|-------------------------------------|-------------------------------------|
B|-------------------------------------|-------------------------------------|
G|---------------------4-4-4-2---------|-------------------------------------|
D|-6-----6-------------4-4-4-2---------|-4-----6-----------------------------|
A|-6-----6-------------2-2-2-0---------|-4-----6-----------------------------|
E|-4-----4-----------------------------|-2-----4-----------------------------|

   A chord diagramD5D5        A chord diagramA/C#A/C#     A chord diagramC5C5        A chord diagramG/BG/B      A chord diagramD5D5        A chord diagramA/C#A/C#     A chord diagramC5C5        A chord diagramG/BG/B
e|-------------------------------------|-------------------------------------|
B|-------------------------------------|-------------------------------------|
G|-7---------6--------5---------4------|-7---------6--------5---------4------|
D|-7---------7--------5---------5------|-7---------7--------5---------5------|
A|-5---------4--------3---------2------|-5---------4--------3---------2------|
E|-------------------------------------|-------------------------------------|


Verse:

   A chord diagramE5E5      A chord diagramG#5G#5        A chord diagramD5D5      A chord diagramA5A5         A chord diagramE5E5      A chord diagramC#5C#5        A chord diagramB5B5      A chord diagramA5A5
e|-------------------------------------|-------------------------------------|
B|-------------------------------------|-------------------------------------|
G|-9-----9------------7-----7----------|-9-----9-6------6--------------------|
D|-9-----9-6------6---7-----7-7-----7--|-9-----9-6------6---9-----9-7-----7--|
A|-7-----7-6------6---5-----5-7-----7--|-7-----7-4------4---9-----9-7-----7--|
E|---------4------4-----------5-----5--|--------------------7-----7-5-----5--|
   Theres nowhere I ever wanted to stay  (Somethings missing)

   A chord diagramE5E5      A chord diagramG#5G#5        A chord diagramD5D5      A chord diagramA5A5         A chord diagramE5E5      A chord diagramC#5C#5        A chord diagramB5B5      A chord diagramA5A5
e|-------------------------------------|-------------------------------------|
B|-------------------------------------|-------------------------------------|
G|-9-----9------------7-----7----------|-9-----9-6------6--------------------|
D|-9-----9-6------6---7-----7-7-----7--|-9-----9-6------6---9-----9-7-----7--|
A|-7-----7-6------6---5-----5-7-----7--|-7-----7-4------4---9-----9-7-----7--|
E|---------4------4-----------5-----5--|--------------------7-----7-5-----5--|
   And nothing really makes it okay      (Somethings missing)

   A chord diagramE5E5      A chord diagramG#5G#5        A chord diagramD5D5      A chord diagramA5A5         A chord diagramE5E5      A chord diagramC#5C#5        A chord diagramB5B5      A chord diagramA5A5
e|-------------------------------------|-------------------------------------|
B|-------------------------------------|-------------------------------------|
G|-9-----9------------7-----7----------|-9-----9-6------6--------------------|
D|-9-----9-6------6---7-----7-7-----7--|-9-----9-6------6---9-----9-7-----7--|
A|-7-----7-6------6---5-----5-7-----7--|-7-----7-4------4---9-----9-7-----7--|
E|---------4------4-----------5-----5--|--------------------7-----7-5-----5--|
   Theres nowhere I really wanted to stay (Somethings missing)

   A chord diagramE5E5      A chord diagramG#5G#5        A chord diagramD5D5      A chord diagramA5A5         A chord diagramE5E5      A chord diagramC#5C#5        A chord diagramB5B5      A chord diagramA5A5
e|-------------------------------------|-------------------------------------|
B|-------------------------------------|-------------------------------------|
G|-9-----9------------7-----7----------|-9-----9-6------6--------------------|
D|-9-----9-6------6---7-----7-7-----7--|-9-----9-6------6---9-----9-7-----7--|
A|-7-----7-6------6---5-----5-7-----7--|-7-----7-4------4---9-----9-7-----7--|
E|---------4------4-----------5-----5--|--------------------7-----7-5-----5--|
   And nothing really makes it okay      (Somethings missing)


Outro:

   A chord diagramA5A5
e|-----------------------------------|-----------------------------------|
B|-----------------------------------|-----------------------------------|
G|-----------------------------------|-----------------------------------|
D|-7-7-7-7-7-7-7-7-7-7-7-7-7-7-7-7-7-|-7-7-7-7-7-7-7-7-7-7-7-7-7-7-7-7-7-|
A|-7-7-7-7-7-7-7-7-7-7-7-7-7-7-7-7-7-|-7-7-7-7-7-7-7-7-7-7-7-7-7-7-7-7-7-|
E|-5-5-5-5-5-5-5-5-5-5-5-5-5-5-5-5-5-|-5-5-5-5-5-5-5-5-5-5-5-5-5-5-5-5-5-|
     Somethings missing                  Somethings missing

                                       A chord diagramA minorAm
e|-----------------------------------|-----------------------------------|
B|-----------------------------------|-5-------------5-------------------|
G|-----------------------------------|-5-------------5-------------------|
D|-7-7-7-7-7-7-7-7-7-7-7-7-7-7-7-7-7-|-7-------------7-------------------|
A|-7-7-7-7-7-7-7-7-7-7-7-7-7-7-7-7-7-|-7-------------7-------------------|
E|-5-5-5-5-5-5-5-5-5-5-5-5-5-5-5-5-5-|-5-------------5-------------------|

Other versions of Somethings Missing

Somethings missingTabs

Almost there ...

Sign in to get your own page with links to favourite songs and more. You are just one click away...

Login with Facebook Login with Google