Log in

One click and you are in

Login with Facebook Login with Google

Why sign up and log in

Guitar Tabs Explorer
Lemonade Mouth bass tabs for Determinate

Bass tabs

Tuning: Standard (E A D G)


No bass in intro.

Verse 1: 0:37

G|-----------------------------------------------------------------|
D|--------------------6-6-5-5-4-4---------------------6-6-5-5-4-4--|
A|--4-4---4-4---4-4-----------------4-4---4-4---4-4----------------|
E|-----------------------------------------------------------------|

Rest.


Chorus Simple Option: 0:56

G|---------------------------------------------------------------------|
D|---------------------------------------------------------------------|
A|------------------------------------4-4-4-4-4-4-4-4--7-7-7-7-7-7-7-7-| x3
E|--5-5-5-5-5-5-5-5--7-7-7-7-7-7-7-7-----------------------------------|

G|-----------------------------------|
D|-----------------------------------|
A|-----------------------------------|
E|--5-5-5-5-5-5-5-5--7-7-7-7-7-7-7-7-|


OR Chorus Advanced Option: 0:56

G|--------------------------------------6---6---6---6----9---9---9---9-|
D|----7---7---7---7----9---9---9---9-----------------------------------|
A|------------------------------------4---4---4---4----7---7---7---7---| x3
E|--5---5---5---5----7---7---7---7-------------------------------------|

G|-----------------------------------|
D|----7---7---7---7----9---9---9---9-|
A|-----------------------------------|
E|--5---5---5---5----7---7---7---7---|

Rest.

Verse 2: 1:24

G|-----------------------------------------------------------------|
D|--------------------6-6-5-5-4-4---------------------6-6-5-5-4-4--|
A|--4-4---4-4---4-4-----------------4-4---4-4---4-4----------------|
E|-----------------------------------------------------------------|

Rest.


Chorus Simple Option: 1:44

G|---------------------------------------------------------------------|
D|---------------------------------------------------------------------|
A|------------------------------------4-4-4-4-4-4-4-4--7-7-7-7-7-7-7-7-| x3
E|--5-5-5-5-5-5-5-5--7-7-7-7-7-7-7-7-----------------------------------|

G|-----------------------------------|
D|-----------------------------------|
A|-----------------------------------|
E|--5-5-5-5-5-5-5-5--7-7-7-7-7-7-7-7-|


OR Chorus Advanced Option: 1:44

G|--------------------------------------6---6---6---6----9---9---9---9-|
D|----7---7---7---7----9---9---9---9-----------------------------------|
A|------------------------------------4---4---4---4----7---7---7---7---| x3
E|--5---5---5---5----7---7---7---7-------------------------------------|

G|-----------------------------------|
D|----7---7---7---7----9---9---9---9-|
A|-----------------------------------|
E|--5---5---5---5----7---7---7---7---|

Rest.


Bridge: 2:12

G|-----------------------------------------------------------------|
D|--------------------6-6-5-5-4-4---------------------6-6-5-5-4-4--|
A|--4-4---4-4---4-4-----------------4-4---4-4---4-4----------------|
E|-----------------------------------------------------------------|

G|--------------------------------|
D|--------------------6-6-5-5-4-4-|
A|--4-4---4-4---4-4---------------|
E|--------------------------------|


Chorus Simple Option: 2:32

G|---------------------------------------------------------------------|
D|---------------------------------------------------------------------|
A|------------------------------------4-4-4-4-4-4-4-4--7-7-7-7-7-7-7-7-| x6
E|--5-5-5-5-5-5-5-5--7-7-7-7-7-7-7-7-----------------------------------|


OR Chorus Advanced Option: 2:32

G|--------------------------------------6---6---6---6----9---9---9---9-|
D|----7---7---7---7----9---9---9---9-----------------------------------|
A|------------------------------------4---4---4---4----7---7---7---7---| x6
E|--5---5---5---5----7---7---7---7-------------------------------------|

Almost there ...

Sign in to get your own page with links to favourite songs and more. You are just one click away...

Login with Facebook Login with Google