Log in

One click and you are in

Login with Facebook Login with Google

Why sign up and log in

Guitar Tabs Explorer
Lemon Demon bass tabs for Ive got some falling to do

I've Got Some Falling To Do bass tab by Lemon Demon

Lemon Demon bass tabs for Ive got some falling to do

Bass tabs

Tuning: Standard (E A D G)

🎸 Intro: + 🎸 Verse 1:

G|----------------------------------------------------------------|
D|------------------------------0-1---1-----0---0-1---1-----------|
A|3---3-----2---1-3---3---1-0-1---------1-----1-------------1-3-1-|
E|------3-------------------------------------------------3-------| x6
🎸 Bridge:

G|----------------------------------------------------------------|
D|----------------------------------------------------------------|
A|------------------------------0-----0---0---0---0---0-0---0-2-3-|
E|1---1---1---1---1---1-1-0-3-4---------------------------3-------|

G|----------------------------------------------------------------|
D|------------------------1-----------------------------1---------|
A|----3---3---3---3---3-3---3-1---------1-----1-3-----3-------3-1-|
E|------------------------------1-----1---------------------------|

G|----------------------------------------------------------------|
D|----------------------------------------------------0-0-1-1-----|
A|------------------------------0-----0---0-2-3-----3---------3-3-|
E|1---1---1---1---1---1-1-0-3-4---------3-------------------------|

G|--------------------------------|
D|--------------------------------|
A|0-0-0-0-------------------------|
E|--------4-4-4-4-3-3-3-3-2-2-2-2-|

🎸 Chorus:

G|----------------------------------------------------------------|
D|----------------------------------------------------------------|
A|--------------2-3-----5-6---------------------2-3-----5-6-5-6-5-|
E|1-----3-4-----------------------1-----3-4-----------------------|

G|----------------------------------------------------------------|
D|----------------------------------------------------------------|
A|--------------2-3-----5-6---------------------2-3-----5-6-5-6-8-|
E|1-----3-4-----------------------1-----3-4-----------------------|

🎸 Verse 2:

G|----------------------------------------------------------------|
D|------------------------------0-1---1-----0---0-1---1-----------|
A|3---3-----2---1-3---3---1-0-1---------1-----1-------------1-3-1-|
E|------3-------------------------------------------------3-------| x6

🎸 Bridge:

G|----------------------------------------------------------------|
D|----------------------------------------------------------------|
A|------------------------------0-----0---0---0---0---0-0---0-2-3-|
E|1---1---1---1---1---1-1-0-3-4---------------------------3-------|

G|----------------------------------------------------------------|
D|------------------------1-----------------------------1---------|
A|----3---3---3---3---3-3---3-1---------1-----1-3-----3-------3-1-|
E|------------------------------1-----1---------------------------|

G|----------------------------------------------------------------|
D|----------------------------------------------------0-0-1-1-----|
A|------------------------------0-----0---0-2-3-----3---------3-3-|
E|1---1---1---1---1---1-1-0-3-4---------3-------------------------|

G|--------------------------------|
D|--------------------------------|
A|0-0-0-0-------------------------|
E|--------4-4-4-4-3-3-3-3-2-2-2-2-|

🎸 Chorus:

G|----------------------------------------------------------------|
D|----------------------------------------------------------------|
A|--------------2-3-----5-6---------------------2-3-----5-6-5-6-5-|
E|1-----3-4-----------------------1-----3-4-----------------------|

G|----------------------------------------------------------------|
D|----------------------------------------------------------------|
A|--------------2-3-----5-6---------------------2-3-----5-6-5-6-8-|
E|1-----3-4-----------------------1-----3-4-----------------------|

🎸 Solo:

G|----------------------------------------------------------------|
D|----------------------------------------------------------------|
A|------------------------------0-----0---0---0---0---0-0---0-2-3-|
E|1---1---1---1---1---1-1-0-3-4---------------------------3-------|

G|----------------------------------------------------------------|
D|------------------------1-----------------------------1---------|
A|----3---3---3---3---3-3---3-1---------1-----1-3-----3-------3-1-|
E|------------------------------1-----1---------------------------|

G|----------------------------------------------------------------|
D|----------------------------------------------------0-0-1-1-----|
A|------------------------------0-----0---0-2-3-----3---------3-3-|
E|1---1---1---1---1---1-1-0-3-4---------3-------------------------|

G|--------------------------------|
D|--------------------------------|
A|0-0-0-0-------------------------|
E|--------4-4-4-4-3-3-3-3-2-2-2-2-|

G|----------------------------------------------------------------|
D|----------------------------------------------------------------|
A|--------------2-3-----5-6---------------------2-3-----5-6-5-6-5-|
E|1-----3-4-----------------------1-----3-4-----------------------|

G|----------------------------------------------------------------|
D|----------------------------------------------------------------|
A|--------------2-3-----5-6---------------------2-3-----5-6-5-6-8-|
E|1-----3-4-----------------------1-----3-4-----------------------|

🎸 Outro:

G|----------------------------------------------------------------|
D|----------------------------------------------------------------|
A|----------------------------------------------------------------|
E|----------------------------------------------------------------|

G|----------------------------------------------------------------|
D|----------------------------------------------------------------|
A|--------------2-3-----5-6---------------------2-3-----5-6-5-6-5-|
E|1-----3-4-----------------------1-----3-4-----------------------|

G|----------------------------------------------------------------|
D|----------------------------------------------------------------|
A|--------------2-3-----5-6---------------------2-3-----5-6-5-6-8-|
E|1-----3-4-----------------------1-----3-4-----------------------|

Almost there ...

Sign in to get your own page with links to favourite songs and more. You are just one click away...

Login with Facebook Login with Google