Log in

One click and you are in

Login with Facebook Login with Google

Why sign up and log in

Guitar Tabs Explorer
Lemon Demon bass tabs for Cabinet man

Bass tabs

Tuning: Standard (E A D G)


Intro:
G|------------------------------------|
D|------------------------------------|x2
A|----------3-3-3-3-------------------|
E|-6-6-6-6-----------1-1-1-1--3-3-3-3-|
G|------------0-----0-2----|-0---------|
D|----------3-----3-----3--|---3-----3-|x2
A|------4/5----------------|-----4/5---|
E|-6-6---------------------|-----------|


Verse 1:
G|--------------------------------------------------------------------|
D|--------------------------------------------------------------------|x2
A|------------------3-3-3-3-3-3-3-3-----------------------------------|
E|-6-6-6-6-6-6-6-6-------------------1-1-1-1-1-1-1-1--3-3-3-3-3-3-3-3-|

G|------------0----0-2----|-0---------|
D|----------3----3-----3--|---3-----3-|x2
A|------4/5---------------|-----4/5---|
E|-6-6--------------------|-----------|

G|--------------------------------------------------------------------|
D|--------------------------------------------------------------------|x2
A|------------------3-3-3-3-3-3-3-3-----------------------------------|
E|-6-6-6-6-6-6-6-6-------------------1-1-1-1-1-1-1-1--3-3-3-3-3-3-3-3-|

G|------------0----0-2----|-0---------|
D|----------3----3-----3--|---3-----3-|x2
A|------4/5---------------|-----4/5---|
E|-6-6--------------------|-----------|

Chorus:
G|------------------------------------|
D|------------------------------------|
A|----------3-3-3-3-------------------|
E|-6-6-6-6-----------1-1-1-1--3-3-3-3-|

G|------------------------------------|
D|------------------------------------|
A|----------3-3-3-3-------------------|
E|-6-6-6-6-----------5-5-5-5--7-5-3-1-|

G|------------------------------------|
D|-------------------3-3-3-3--5-3---3-|
A|----------3-3-3-3---------------5---|
E|-6-6-6-6----------------------------|

G|------------------------------------|
D|------------------------------------|
A|----------3-3-3-3-------------------|
E|-6-6-6-6-----------5-5-5-5--7-5-3-1-|


Verse 2:
G|--------------------------------------------------------------------|
D|--------------------------------------------------------------------|x2
A|------------------3-3-3-3-3-3-3-3-----------------------------------|
E|-6-6-6-6-6-6-6-6-------------------1-1-1-1-1-1-1-1--3-3-3-3-3-3-3-3-|

G|------------0----0-2----|-0---------|
D|----------3----3-----3--|---3-----3-|x2
A|------4/5---------------|-----4/5---|
E|-6-6--------------------|-----------|

G|--------------------------------------------------------------------|
D|--------------------------------------------------------------------|x2
A|------------------3-3-3-3-3-3-3-3-----------------------------------|
E|-6-6-6-6-6-6-6-6-------------------1-1-1-1-1-1-1-1--3-3-3-3-3-3-3-3-|

G|------------0----0-2----|-0---------|
D|----------3----3-----3--|---3-----3-|x2
A|------4/5---------------|-----4/5---|
E|-6-6--------------------|-----------|


Chorus:
G|------------------------------------|
D|------------------------------------|
A|----------3-3-3-3-------------------|
E|-6-6-6-6-----------1-1-1-1--3-3-3-3-|

G|------------------------------------|
D|------------------------------------|
A|----------3-3-3-3-------------------|
E|-6-6-6-6-----------5-5-5-5--7-5-3-1-|

G|------------------------------------|
D|-------------------3-3-3-3--5-3---3-|
A|----------3-3-3-3---------------5---|
E|-6-6-6-6----------------------------|

G|------------------------------------|
D|------------------------------------|
A|----------3-3-3-3-------------------|
E|-6-6-6-6-----------5-5-5-5--7-5-3-1-|


Bridge:
G|------------------|
D|------------------|x2
A|-5----------------|
E|----------3-------|

G|------------------|
D|------------------|
A|-3----------------|
E|----------1-------|

G|------------------------|
D|------------------------|
A|-3----------------------|
E|----------1-1-0-1-2-3-4-|

G|------------------|
D|------------------|x2
A|------------------|
E|-5--------0-------|

G|----------------------------------|
D|----------------------------------|x2
A|----------------------------------|
E|-1-1-1-1-1-1-1-1--3-3-3-3-3-3-3-3-|


Verse 3:
G|--------------------------------------------------------------------|
D|--------------------------------------------------------------------|x5
A|------------------3-3-3-3-3-3-3-3-----------------------------------|
E|-6-6-6-6-6-6-6-6-------------------1-1-1-1-1-1-1-1--3-3-3-3-3-3-3-3-|

G|---------------------------------------------|
D|---------------------------------------------|x2
A|------------------3--------------------------|
E|-6-6-6-6-6-6-6-6-----------------------------|


Chorus:
G|------------------------------------|
D|------------------------------------|
A|----------3-3-3-3-------------------|
E|-6-6-6-6-----------1-1-1-1--3-3-3-3-|

G|------------------------------------|
D|------------------------------------|
A|----------3-3-3-3-------------------|
E|-6-6-6-6-----------5-5-5-5--7-5-3-1-|

G|------------------------------------|
D|-------------------3-3-3-3--5-3---3-|
A|----------3-3-3-3---------------5---|
E|-6-6-6-6----------------------------|

G|------------------------------------|
D|------------------------------------|
A|----------3-3-3-3-------------------|
E|-6-6-6-6-----------5-5-5-5--7-5-3-1-|


Outro:
G|--------------------------------------------------------------------|
D|--------------------------------------------------------------------|
A|------------------3-3-3-3-3-3-3-3-----------------------------------|
E|-6-6-6-6-6-6-6-6-------------------1-1-1-1-1-1-1-1--3-3-3-3-3-3-3-3-|

G|---------------------------------------------------------------|
D|---------------------------------------------------------------|
A|------------------3-3-3-3-3-3-3-3------------------------------|
E|-6-6-6-6-6-6-6-6-------------------5-5-5-5-5-5-5-5--7--5--3--1-|

G|--------------------------------------------------------------------|
D|--------------------------------------------------------------------|
A|------------------3-3-3-3-3-3-3-3-----------------------------------|
E|-6-6-6-6-6-6-6-6-------------------1-1-1-1-1-1-1-1--3-3-3-3-3-3-3-3-|


G|---------------------------------------------------------------|
D|---------------------------------------------------------------|
A|------------------3-3-3-3-3-3-3-3------------------------------|
E|-6-6-6-6-6-6-6-6-------------------5-5-5-5-5-5-5-5--7--5--3--1-|


************************************

| / Slide up

************************************

Almost there ...

Sign in to get your own page with links to favourite songs and more. You are just one click away...

Login with Facebook Login with Google