Log in

One click and you are in

Login with Facebook Login with Google

Why sign up and log in

Guitar Tabs Explorer
Lemolo bass tabs for Fuel

Bass tabs

-----------------------------------------------------------------------
               Lemolo - Fuel
-----------------------------------------------------------------------
Tabbed by: boblentil
Tuning: Standard


Main Riff (0:06 to end)

  1-+-2-+-3-+-4-+-1-+-2-+-3-+-4-+-
G|---------------------------------|
D|---------------------------------| Repeats throughout song
A|-----------------7-----7-5-5-4---|
E|-2-----2-2-----------------------|


Chorus (1:11 to 1:37 and 2:03 to 2:29)

  1-+-2-+-3-+-4-+-1-+-2-+-3-+-4-+-1-+-2-+-3-+-4-+-1-+-2-+-3-+-4-+-
G|-----------------------------------------------------------------|
D|-----------------------------------------------------------------| 2x
A|-----------------7-------5---4-------------------7-------5-5-4---|
E|-2-------------------------------2-------------------------------|


Guitar Solo (2:29 to 2:55)

  1-+-2-+-3-+-4-+-1-+-2-+-3-+-4-+-1-+-2-+-3-+-4-+-1-+-2-+-3-+-4-+-
G|-----------------------------------------------------------------|
D|-----------------------------------------------------------------| 2x
A|-----------------7-------5-5-4-------------------7-------5-5-4---|
E|-2-------------------------------2-------------------------------|

Almost there ...

Sign in to get your own page with links to favourite songs and more. You are just one click away...

Login with Facebook Login with Google