Log in

One click and you are in

Login with Facebook Login with Google

Why sign up and log in

Guitar Tabs Explorer
The Left Banke bass tabs for Pretty ballerina

Bass tabs

Intro:

G |-----------------|-----------------|-----------------|-----------------|
D |-------5-6-----6-|-----------------|-------5-6-----6-|-----------------|
A |-6---------------|-6-----6-----4-5-|-6---------------|-6-----6-----6---|
E |-----------------|-----------6-----|-----------------|-----6-----6-----|
  1 & 2 & 3 & 4 &  1 & 2 & 3 & 4 &  1 & 2 & 3 & 4 &  1 & 2 & 3 & 4 &

Verse 1:

G |-----------------|-----------------|-----------------|-----------------|
D |-------5-6-----6-|-----------------|-------5-6-----6-|-----------------|
A |-6---------------|-6-----6-----4-5-|-6---------------|-6-----6-----6---|
E |-----------------|-----------6-----|-----------------|-----6-----6-----|
  1 & 2 & 3 & 4 &  1 & 2 & 3 & 4 &  1 & 2 & 3 & 4 &  1 & 2 & 3 & 4 &

G |-----------------|-----------------|-----------------|-----------------|
D |-------5-6-----6-|-----------------|-----------------|-----------------|
A |-6---------------|-6-----6-----6---|-----------------|---------2---3---|
E |-----------------|-----------------|-6-----6-6-------|-4-----4---------|
  1 & 2 & 3 & 4 &  1 & 2 & 3 & 4 &  1 & 2 & 3 & 4 &  1 & 2 & 3 & 4 &

G |-----------------|-----------------|-----------------|-----------------|
D |-----------------|-----------------|-------5-6-----6-|-----------------|
A |-4-----4-6---8---|-9-----9---------|-6---------------|-6-----6-----4-5-|
E |-----------------|---------6---6---|-----------------|-----------6-----|
  1 & 2 & 3 & 4 &  1 & 2 & 3 & 4 &  1 & 2 & 3 & 4 &  1 & 2 & 3 & 4 &


Verse 2:

G |-----------------|-----------------|-----------------|-----------------|
D |-------5-6-----6-|-----------------|-------5-6-----6-|-----------------|
A |-6---------------|-6-----6-----4-5-|-6---------------|-6-----6-----6---|
E |-----------------|-----------6-----|-----------------|-----6-----6-----|
  1 & 2 & 3 & 4 &  1 & 2 & 3 & 4 &  1 & 2 & 3 & 4 &  1 & 2 & 3 & 4 &

G |-----------------|-----------------|-----------------|-----------------|
D |-------5-6-----6-|-----------------|-----------------|-----------------|
A |-6---------------|-6-----6-----6---|-----------------|---------2---3---|
E |-----------------|-----------------|-6-----6-6-------|-4-----4---------|
  1 & 2 & 3 & 4 &  1 & 2 & 3 & 4 &  1 & 2 & 3 & 4 &  1 & 2 & 3 & 4 &

G |-----------------|-----------------|-----------------|-----------------|
D |-----------------|-----------------|-------5-6-----6-|-----------------|
A |-4-----4-6---8---|-9-----9---------|-6---------------|-6-----6-----6---|
E |-----------------|---------6---6---|-----------------|-----------------|
  1 & 2 & 3 & 4 &  1 & 2 & 3 & 4 &  1 & 2 & 3 & 4 &  1 & 2 & 3 & 4 &


Instrumental:

G |-----------------|-----------------|
D |-5-----5-5-----5-|-3-----3-3-----3-|
A |-----------------|-----------------|
E |-----------------|-----------------|
  1 & 2 & 3 & 4 &  1 & 2 & 3 & 4 &

  ---3--- ---3---
G |-------------------|-----------------|-----------------|
D |-2--1--0-----------|-----------------|-----------------|
A |----------3--4--3--|-5---------------|-----------------|
E |-------------------|-----------------|-----------------|
            1 & 2 & 3 & 4 &  1 & 2 & 3 & 4 &

G |-----------------|-----------------|-----------------|-------------------------|
D |-----------------|-7-----7-7-----7-|-----------------|-5-----5-7---7-7-----7-7-|
A |-5-----5-5-----5-|-----------------|-7-----7-7-----7-|-------------------------|
E |-----------------|-----------------|-----------------|-------------------------|
  1 & 2 & 3 & 4 &  1 & 2 & 3 & 4 &  1 & 2 & 3 & 4 &  1 & 2 & 3 & 4 & 5 & 6 &

G |-----------------|-----------------|-------------------------|-----------------|
D |-----------------|-7-----7-7-----7-|-----------------5-----5-|-7---------------|
A |-5-----5-5-----5-|-----------------|-7-----7-7-----7---------|-----------------|
E |-----------------|-----------------|-------------------------|-----------------|
  1 & 2 & 3 & 4 &  1 & 2 & 3 & 4 &  1 & 2 & 3 & 4 & 5 & 6 &  1 & 2 & 3 & 4 &


Verse 3:

G |-----------------|-----------------|-----------------|-----------------|
D |-------5-6-----6-|-----------------|-------5-6-----6-|-----------------|
A |-6---------------|-6-----6-----4-5-|-6---------------|-6-----6-----6---|
E |-----------------|-----------6-----|-----------------|-----6-----6-----|
  1 & 2 & 3 & 4 &  1 & 2 & 3 & 4 &  1 & 2 & 3 & 4 &  1 & 2 & 3 & 4 &

G |-----------------|-----------------|-----------------|-----------------|
D |-------5-6-----6-|-----------------|-----------------|-----------------|
A |-6---------------|-6-----6-----4-5-|-----------------|---------2---3---|
E |-----------------|-----------6-----|-6-----6-6-----6-|-4-----4---------|
  1 & 2 & 3 & 4 &  1 & 2 & 3 & 4 &  1 & 2 & 3 & 4 &  1 & 2 & 3 & 4 &

G |-----------------|-----------------|-----------------|-----------------|
D |-----------------|-----------------|-------5-6-----6-|-----------------|
A |-4-----4-6---8---|-9-----9---------|-6---------------|-6-----6-----4-5-|
E |-----------------|---------6---6---|-----------------|-----------6-----|
  1 & 2 & 3 & 4 &  1 & 2 & 3 & 4 &  1 & 2 & 3 & 4 &  1 & 2 & 3 & 4 &


Verse 4:

G |-----------------|-----------------|-----------------|-----------------|
D |-------5-6-----6-|-----------------|-------5-6-----6-|-----------------|
A |-6---------------|-6-----6-----4-5-|-6---------------|-6-----6-----4-5-|
E |-----------------|-----------6-----|-----------------|-----------6-----|
  1 & 2 & 3 & 4 &  1 & 2 & 3 & 4 &  1 & 2 & 3 & 4 &  1 & 2 & 3 & 4 &

G |-----------------|-----------------|-----------------|-----------------|
D |-------5-6-----6-|-----------------|-----------------|-----------------|
A |-6---------------|-6-----6-----6---|-----------------|---------2---3---|
E |-----------------|-----------------|-6-----6-6-----6-|-4-----4---------|
  1 & 2 & 3 & 4 &  1 & 2 & 3 & 4 &  1 & 2 & 3 & 4 &  1 & 2 & 3 & 4 &

G |-----------------|-----------------|-----------------|-----------------|
D |-----------------|-----------------|-------5-6-----6-|-----------------|
A |-4-----4-6---8---|-9-----9---------|-6---------------|-6-----6-----6---|
E |-----------------|---------6---6---|-----------------|-----------6-----|
  1 & 2 & 3 & 4 &  1 & 2 & 3 & 4 &  1 & 2 & 3 & 4 &  1 & 2 & 3 & 4 &


Outro:

G |-----------------|-----------------|-----------------|-----------------|
D |-------5-6-----6-|-----------------|-------5-6-----6-|-----------------|
A |-6---------------|-6-----6-----6---|-6---------------|-6-----6-----6---|
E |-----------------|-----6-----6-----|-----------------|-----------6-----|
  1 & 2 & 3 & 4 &  1 & 2 & 3 & 4 &  1 & 2 & 3 & 4 &  1 & 2 & 3 & 4 &

G |-----------------|-----------------|
D |-------5-6-----6-|-----------------|
A |-6---------------|-6-----6-----6---|
E |-----------------|-----6-----6-----|
  1 & 2 & 3 & 4 &  1 & 2 & 3 & 4 &
ⓘ Bass guitar tab for 'Pretty Ballerina' by The Left Banke, artist. The Left Banke was born in 1965.

Almost there ...

Sign in to get your own page with links to favourite songs and more. You are just one click away...

Login with Facebook Login with Google