Search tabs and chords

Search for song, artist or band

Log in

One click and you are in

Login with Facebook Login with Google

Why sign up and log in

Guitar Tabs Explorer
Lee Harvey Osmond bass tabs for Forty light years

Bass tabs

  • Tuning: Standard tuning
  • Difficulty: Novice
-------------------------------------------------------------------
                  Artist - Lee Harvey Osmond
                 ****************************
                   Song - Forty Light Years
                  **************************
                    Album - Mohawk (2019)
                   ***********************
                    Tabbed By - Ayreon77
                   **********************
-------------------------------------------------------------------
Tuning = Standard
INTRO
******
G|------------------------------|----------------------------|
D|------------------------------|----------------------------|
A|----------3~~--5~~--0-5-0-3~~-|--------3~~--3-5~~--0-5-3~~-|
E|-0-5~~--5---------------------|-5~~--5---------------------|

  Duh Duh
G|----------------------------|----------------------------|
D|----------------------------|----------------------------|
A|--------3~~--5~~--0-5-0-3~~-|--------3~~--3-5~~--0-5-3~~-|
E|-5~~--5---------------------|-5~~--5---------------------|

 Duh Duh
G|------------------------------|----------------------------|
D|------------------------------|----------------------------|
A|--------3~~--3-5~~--0-5-0-3~~-|--------3~~--3-5~~--0-5-3~~-|
E|-5~~--5-----------------------|-5~~--5---------------------|


----------------------
00:25
VERSE 1
********
G|------------------------------|----------------------------|
D|------------------------------|----------------------------|
A|--------3~~--3-5~~--0-5-0-3~~-|--------3~~--3-5~~--0-5-3~~-|
E|-5~~--5-----------------------|-5~~--5---------------------|

G|------------------------------|----------------------------|
D|------------------------------|----------------------------|
A|--------3~~--3-5~~--0-5-0-3~~-|--------3~~--3-5~~--0-5-3~~-|
E|-5~~--5-----------------------|-5~~--5---------------------|

00:38
G|-----------|-------------|---------------------------|
D|-----------|-------------|---------------------------|
A|-----------|-------------|-5~~-5-5~~--3-5--5-5-5-3~~-|
E|-5~~-5-5~~-|-5-3~~-3-3~~-|---------------------------|


----------------------
CHORUS
*******
00:45
G|------------------------------|----------------------------|
D|------------------------------|----------------------------|
A|--------3~~--3-5~~--0-5-0-3~~-|--------3~~--3-5~~--0-5-3~~-|
E|-5~~--5-----------------------|-5~~--5---------------------|


G|------------------------------|--------------------------|
D|------------------------------|--------------------------|
A|--------3~~--3-5~~--0-5-0-3~~-|--------3~~--5~~--0-5-3~~-|
E|-5~~--5-----------------------|-5~~--5-------------------|


----------------------
00:59
  Duh Duh
G|----------------------------|----------------------------|
D|----------------------------|----------------------------|
A|--------3~~--5~~--0-5-0-3~~-|--------3~~--3-5~~--0-5-3~~-|
E|-5~~--5---------------------|-5~~--5---------------------|

 Duh Duh
G|------------------------------|----------------------------|
D|------------------------------|----------------------------|
A|--------3~~--3-5~~--0-5-0-3~~-|--------3~~--3-5~~--0-5-3~~-|
E|-5~~--5-----------------------|-5~~--5---------------------|


----------------------
01:13
VERSE 2
********
G|----------------------------|--------------------------|
D|----------------------------|--------------------------|
A|--------3~~--5~~--0-5-0-3~~-|--------3~~--5~~--0-5-3~~-|
E|-5~~--5---------------------|-5~~--5-------------------|


G|------------------------------|----------------------------|
D|------------------------------|----------------------------|
A|--------3~~--3-5~~--0-5-0-3~~-|--------3~~--3-5~~--0-5-3~~-|
E|-5~~--5-----------------------|-5~~--5---------------------|


G|-----------|-------------|---------------------------|
D|-----------|-------------|---------------------------|
A|-----------|-------------|-5~~-5-5~~--3-5--5-5-5-3~~-|
E|-5~~-5-5~~-|-5-3~~-3-3~~-|---------------------------|


----------------------
01:34
CHORUS
*******
G|------------------------------|----------------------------|
D|------------------------------|----------------------------|
A|--------3~~--3-5~~--0-5-0-3~~-|--------3~~--3-5~~--0-5-3~~-|
E|-5~~--5-----------------------|-5~~--5---------------------|


G|------------------------------|----------------------------|
D|------------------------------|----------------------------|
A|--------3~~--3-5~~--0-5-0-3~~-|--------3~~--5~~--0-5-3~~-5-|
E|-5~~--5-----------------------|-5~~--5---------------------|


----------------------
01:48
  Duh Duh
G|-----------------------|---------------------------|
D|-----------------------|---------------------------|
A|-----3~~--3-5~~--3---3-|-----3~~--3-5~~--0-5-3~~-5-|
E|-5-5---------------5---|-5-5-----------------------|

 Duh Duh
G|-------------------------|--------------------------|
D|-------------------------|--------------------------|
A|-----3~~--5~~--0-5-0-3~~-|-----3~~--3-5--5-5-3-3--s-|
E|-5-5---------------------|-5-5-------------------5\-|


----------------------
02:01
SOLO
*****
G|------------------------------------------------|
D|------------------------------------------------|
A|------------------s-----------------------------|
E|-1~~-1-1--1-1--1-1\-3-5--5-5-5--5-5--5-5-5--5-3-|


G|----------------------------------------------|
D|-------------------------------5-5-5-5-5-5--s-|
A|-------------------------------------------5\-|
E|-1~~-1-1--1-1--1-1--1-3~~-3-3-----------------|


----------------------
02:15
  Duh Duh
G|----------------------------|----------------------------|
D|----------------------------|----------------------------|
A|--------3~~--5~~--0-5-0-3~~-|--------3~~--3-5~~--0-5-3~~-|
E|-5~~--5---------------------|-5~~--5---------------------|

 Duh Duh
G|------------------------------|------------------------------|
D|------------------------------|------------------------------|
A|--------3~~--3-5~~--0-5-0-3~~-|--------3~~--3-5~~--0-5-0-3~~-|
E|-5~~--5-----------------------|-5~~--5-----------------------|


----------------------
02:29
VERSE 3
********
G|----------------------------|--------------------------|
D|----------------------------|--------------------------|
A|--------3~~--5~~--0-5-0-3~~-|--------3~~--5~~--0-5-3~~-|
E|-5~~--5---------------------|-5~~--5-------------------|


G|------------------------------|----------------------------|
D|------------------------------|----------------------------|
A|--------3~~--3-5~~--0-5-0-3~~-|--------3~~--3-5~~--0-5-3~~-|
E|-5~~--5-----------------------|-5~~--5---------------------|


G|-----------|-------------|---------------------------|
D|-----------|-------------|---------------------------|
A|-----------|-------------|-5~~-5-5~~--3-5--5-5-5-3~~-|
E|-5~~-5-5~~-|-5-3~~-3-3~~-|---------------------------|


----------------------
02:50
CHORUS
*******
G|------------------------------|----------------------------|
D|------------------------------|----------------------------|
A|--------3~~--3-5~~--0-5-0-3~~-|--------3~~--3-5~~--0-5-3~~-|
E|-5~~--5-----------------------|-5~~--5---------------------|


G|------------------------------|----------------------------|
D|------------------------------|----------------------------|
A|--------3~~--3-5~~--0-5-0-3~~-|--------3~~--5~~--0-5-3~~-5-|
E|-5~~--5-----------------------|-5~~--5---------------------|


----------------------
03:04
  Duh
G|---------------------------|-----------------------|
D|---------------------------|-----------------------|
A|-----3~~--3-5~~--0-5-0-3~~-|-----3~~--3-5~~--5-3-5-|
E|-5-5-----------------------|-5-5-------------------|


G|-------------------------|---------Quick--|
D|-------------------------|--------finish--|
A|-----3~~--3-5~~--3-3-----|---3~~--0-5-3---|
E|-5-5-----------------5~~-|-5------------5-|


ENJOY.............

Forty Light Years bass tab

Lee Harvey Osmond bass tabs for Forty light years

Almost there ...

Sign in to get your own page with links to favourite songs and more. You are just one click away...

Login with Facebook Login with Google