Log in

One click and you are in

Login with Facebook Login with Google

Why sign up and log in

Guitar Tabs Explorer
Curtis Lee bass tabs for Pretty little angel eyes

Pretty Little Angel Eyes bass tab by Curtis Lee

Curtis Lee bass tabs for Pretty little angel eyes

Bass tabs

0:04

G|----------------------------------------------------------------|
D|----------------------------------------------------------------|
A|------------------------7-------------------------------7-------|
E|----------------------------------------------------------------|

G|----------------------------------------------------------------|
D|----------------------------------------------------------------|
A|----------------7---------------7-------7-------7---7---7---7---|
E|----------------------------------------------------------------|

G|----------------------------------------------------------------|
D|----------------------------------------------------------------|
A|7-------7-------4-------4---------------------------------------|
E|--------------------------------5-------5-------7-------7-------|

G|----------------------------------------------------------------|
D|----------------------------------------------------------------|
A|7-------7-------4-------4---------------------------------------|
E|--------------------------------5---------------7---------------|

0:23

G|----------------------------------------------------------------|
D|----------------------------------------------------------------| x3
A|7-------7-------4-------4---------------------------------------|
E|--------------------------------5-------5-------7-------7-------|

G|----------------------------------------------------------------|
D|----------------------------------------------------------------|
A|7-------7-------4-------4---------------------------------------|
E|--------------------------------5---------------7---------------|

0:41

G|----------------------------------------------------------------|
D|----------------------------------------------------------------| x3
A|7-------7-------4-------4---------------------------------------|
E|--------------------------------5-------5-------7-------7-------|

G|----------------------------------------------------------------|
D|------------6---7-------7---------------------------------------|
A|7-------7-----------------------7-------7-------7---5---4-------|
E|------------------------------------------------------------7---|

0:59

G|----------------------------------------------------------------|
D|7---------------7---------------7---------------7-----------7---|
A|--------7---------------7---------------7---------------7-------|
E|----------------------------------------------------------------|

G|----------------------------------------------------------------|
D|6---------------6-----------6-----------------------------------|
A|--------6---------------6-------7---------------7---5---4-------|
E|----------------------------------------7-------------------7---|

G|----------------------------------------------------------------|
D|7---------------7---------------7---------------7-----------7---|
A|--------7---------------7---------------7---------------7-------|
E|----------------------------------------------------------------|

G|--------------------------------------------------------------------------------|
D|--------------------------------------------------------------------------------|
A|9---------------9---------------------------------------------------------------|
E|--------------------------------7-------7-------7---7---7-----7-----7---7---7---|

1:18

G|----------------------------------------------------------------|
D|----------------------------------------------------------------| x3
A|7-------7-------4-------4---------------------------------------|
E|--------------------------------5-------5-------7-------7-------|

G|----------------------------------------------------------------|
D|----------------------------------------------------------------|
A|7-------7-----------------------7-------7-------7---7---7-------|
E|----------------5-------5---------------------------------------|

G|----------------------------------------------------------------|
D|----------------------------------------------------------------|
A|----------------------------------------------------------------|
E|----------------------------------------------------------------|

G|----------------------------------------------------------------|
D|----------------------------------------------------------------|
A|------------------------7-------------------------------7-------|
E|----------------------------------------------------------------|

G|----------------------------------------------------------------|
D|------------------------------------------------------------6---|
A|----------------7---------------7-------7-------7---7---7-------|
E|----------------------------------------------------------------|

1:49

G|----------------------------------------------------------------|
D|7---------------7---------------7---------------7-------7---7---|
A|--------7---------------7---------------7-----------------------|
E|----------------------------------------------------------------|

G|----------------------------------------------------------------|
D|6---------------6-----------6-----------------------------------|
A|--------6---------------6-------7---------------7---7---7---7---|
E|----------------------------------------7-----------------------|

G|----------------------------------------------------------------|
D|7---------------7---------------7---------------7-----------7---|
A|--------7---------------7---------------7---------------7-------|
E|----------------------------------------------------------------|

G|--------------------------------------------------------------------------------|
D|--------------------------------------------------------------------------------|
A|9---------------9---------------------------------------------------------------|
E|--------------------------------7-------7-------7---7---7---7-7---7-----7---7---|

2:09 Until fadeout.

G|----------------------------------------------------------------|
D|----------------------------------------------------------------| x3
A|7-------7-------4-------4---------------------------------------|
E|--------------------------------5-------5-------7-------7-------|

G|----------------------------------------------------------------|
D|----------------------------------------------------------------|
A|7-------7-------4-------4---------------------------------------|
E|--------------------------------5---------------7---------------|

Almost there ...

Sign in to get your own page with links to favourite songs and more. You are just one click away...

Login with Facebook Login with Google