Log in

One click and you are in

Login with Facebook Login with Google

Why sign up and log in

Guitar Tabs Explorer
Led Zeppelin guitar chords for Stairway to heaven ukulele (Ver. 2)

Stairway To Heaven Ukulele chords by Led Zeppelin (Ver. 2)

Led Zeppelin guitar chords for Stairway to heaven ukulele (Ver. 2)

Guitar chords with lyrics

Tuning: G C E A (G C E A)


Intro:
A|-----------------0----|--2--------------2----|
E|------------0---------|-------0--------------|
C|-------0--------------|------------0---------|
G|--2-------------------|--1-------------------|
A|--3--------------3----|-----------------0----|
E|-------0--------------|--2---------2---------|
C|------------0---------|-------2--------------|
G|--0-------------------|--2-------------------|


A|-----------------0----|----------------------|
E|------------1---------|-------1--------------|
C|-------0--------------|------------0---------|
G|--2-------------------|-----------------2----|


A|--2----0----0--------|-------0/----8----7----|
E|--3----0----0--------|-----------------------|
C|--2----0----0--------|-----------------------|
G|--0----2----2--------|-----------------------|


A|-----------------0----|--2--------------2----|
E|------------0---------|-------0--------------|
C|-------0--------------|------------0---------|
G|--2-------------------|--1-------------------|


A|--3--------------3----|-----------------0----|
E|-------0--------------|--2---------2---------|
C|------------0---------|-------2--------------|
G|--0-------------------|--2-------------------|

A|-----------------0----|----------------------|
E|------------1---------|-------1--------------|
C|-------0--------------|------------0---------|
G|--2-------------------|-----------------2----|


A|--2----0----0--------|--0----2----3---------|
E|--3----0----0--------|----------------------|
C|--2----0----0--------|-----------------0----|
G|--0----2----2--------|----------------------|


A|-------3----0---------|-------0----0---------|
E|--0--------------2----|-----------------1----|
C|------------2---------|--2---------0---------|
G|----------------------|----------------------|


A|-------0----2h----3----|-------0----2----3----|
E|-----------------------|--0-------------------|
C|--0--------------------|----------------------|
G|------------2----------|----------------------|


A|------------3----2----|------------2----2p--0--|
E|--0-------------------|--3--------------3------|
C|-------0--------------|-------2---------2------|
G|-----------------0----|------------------------|


A|--0----0-------------|
E|--2----2-------------|
C|--2----2-------------|
G|---------------------|


             Am           E/G#          C           D
There's a lady who's sure all that glitters is gold
          Fm7        Fm7       G/B  Am:>let ring
And she's buying the stairway to heaven
           Am                 E/G#          C              D
When she gets there she knows, if the stores are all closed
       Fm7          Fm7         G/B  Am:>let ring
With a word she can get what she came for


C        D    Fm7        Am
Ooh, ooh ooh, ooh oohooh ooh
          C           G          D: >let ring
And she's buying the stairway to heaven
            C              D               F7M            Am
There's a sign on the wall but she wants to be sure
           C              D          F7M:>let ring
'Cause you know sometimes words have two meanings.
      Am             E/G#             C             D
In a tree by the brook, there's a songbird who sings
          Fm7        Fm7         G/B  Am:>let ring
Sometimes all of our thoughts are misgiven



A|-------0/----8----7----|-----------------0----|
E|-----------------------|------------0---------|
C|-----------------------|-------0--------------|
G|-----------------------|--0-------------------|


A|--2-----------2-----------|-----------3-------------|
E|-----0-----0-----0--------|-----0-----------0-------|
C|--------0-----------0-----|--0-----------------0----|
G|--1--------------------x--|--------0-----0----------|


A|-----------2-------------|-----------3------------|
E|-----2-----------2-------|-----1-------------1----|
C|--2-----------------2----|--0---------------------|
G|--------2-----2----------|--------2-------2-------|


A|-----------3-------------|--2----0----0--------|
E|-----1-----------1-------|--3----0----0--------|
C|--0-----------------0----|--2----0----0--------|
G|--------2-----2----------|--0----2----2--------|


Interlude:

A|-----------2--------||------------------------|
E|-----------3--------||o--3----3--3--3----3----|
C|-----------2--------||o--0----0--0--0----0----|
G|-----------0--------||---0----0--0--0----0----|


A|----------------0----|-------0-------------|
E|-------0--------3----|-------2-------------|
C|-------0--------2----|-------2--------2----|
G|-------0--------2----|-------2-------------|


A|--0----0--0--0---------||
E|--2----2--2--2--------o|| x2
C|------------------2---o||
G|-----------------------||


Ooh_____ it makes me wonder....



          C         G/B        Am          Am
There's a feeling I get when I look to the west
        C         G/B       Fm7 Am:>let ring
And my spirit is crying for leaving
      C               G/B           Am                Am
In my thoughts I have seen rings of smoke through the trees
        C         G/B        Fm7 Am:>let ring
And the voices of those who stand looking


   C                      G/B             Am7
A|-------0----2----3----|------------3----2----------------2---------|
E|----------------------|-------0---------------------3----1---------|
C|----------------------|--0---------------------2---------0---------|
G|----------------------|-----------------0----------------2---------|


 Interlude:
A|-----------2--------||------------------------|
E|-----------3--------||o--3----3--3--3----3----|
C|-----------2--------||o--0----0--0--0----0----|
G|-----------0--------||---0----0--0--0----0----|


A|----------------0----|-------0-------------|
E|-------0--------3----|-------2-------------|
C|-------0--------2----|-------2--------2----|
G|-------0--------2----|-------2-------------|


A|--0----0--0--0---------||
E|--2----2--2--2--------o|| x2
C|------------------2---o||
G|-----------------------||


         C              G/B         Am          Am
And it's whispered that soon if we all call the tune
         C          G/B       Fm7 Am:>let ring
Then the piper will lead us to reason
      C            G/B            Am        Am
And a new day will dawn for those who stand long
        C           G/B       Fm7 Am:>let ring
And the forest will echo with laughter


   C                      G/B             Am7
A|-------0----2----3----|------------3----2----------------2---------|
E|----------------------|-------0---------------------3----1---------|
C|----------------------|--0---------------------2---------0---------|
G|----------------------|-----------------0----------------2---------|


 Interlude:
A|-----------2--------||------------------------|
E|-----------3--------||o--3----3--3--3----3----|
C|-----------2--------||o--0----0--0--0----0----|
G|-----------0--------||---0----0--0--0----0----|


A|----------------0----|-------0-------------|
E|-------0--------3----|-------2-------------|
C|-------0--------2----|-------2--------2----|
G|-------0--------2----|-------2-------------|


A|--0----0--0--0---------||
E|--2----2--2--2--------o|| x2
C|------------------2---o||
G|-----------------------||


(Strum chords)
C             G/B            Am                 Am
 If there's a bustle in your hedgerow don't be alarmed now
C            G/B                 Fm7 Am:>let ring
 It's just a spring clean for the May queen
C              G/B               Am               Am
 Yes there are two paths you can go by but in the long run
C              G/B               Fm7 Am:>let ring
 There's still time to change the road you're on


   C                      G/B             Am7
A|-------0----2----3----|------------3----2----------------2---------|
E|----------------------|-------0---------------------3----1---------|
C|----------------------|--0---------------------2---------0---------|
G|----------------------|-----------------0----------------2---------|


 Interlude:
A|-----------2--------||------------------------|
E|-----------3--------||o--3----3--3--3----3----|
C|-----------2--------||o--0----0--0--0----0----|
G|-----------0--------||---0----0--0--0----0----|


A|----------------0----|-------0-------------|
E|-------0--------3----|-------2-------------|
C|-------0--------2----|-------2--------2----|
G|-------0--------2----|-------2-------------|


A|--0----0--0--0---------||
E|--2----2--2--2--------o|| x2
C|------------------2---o||
G|-----------------------||

C             G/B            Am                   Am
 Your head is humming and it won't go in case you don't know
C            G/B           Fm7 Am:>let ring
 The piper's calling you to join him
C          G/B              Am            Am
 Dear lady can you hear the wind blow and did you know
C              G/B        Fm7 Am:>let ring
 Your stairway lies on the whisperin' wind


C:G/B:Am7:D  Dsus4   D Dsus4   D:
Dsus4   D:Cadd9:G/B:G:
C:G/B:Am7:D  Dsus4   D Dsus4   D:
Dsus4   D:Cadd9:G/B:G:


Solo: Am-G:F: x10


Bridge:

   Am            G
A|--0--0--x-x-x-x-2--2--x-x-x-x-|
E|--0--0--x-x-x-x-3--3--x-x-x-x-|
C|--0--0--x-x-x-x-2--2--x-x-x-x-|
G|--2--2--x-x-x-x-0--0--x-x-x-x-|

   F                          G
A|--0-x-x-0-x-x-0-x-x-0-x-x-0--2--|
E|--1-x-x-1-x-x-1-x-x-1-x-x-1--3--|
C|--0-x-x-0-x-x-0-x-x-0-x-x-0--2--|
G|--2-x-x-2-x-x-2-x-x-2-x-x-2--0--|

N.C
And as we wind on down the road
Our shadows taller than our souls
There walks a lady we all know
Who shines white light and wants to show
How everything still turns to gold
And if you listen very hard
The tune will come to you at last
When all are one and one is all
To be a rock and not to roll


Outro:
Am-G:F:
Am-G:F:
Am-G:F:
Am-G:F:>Let ring


And she's buying a stairway to heaven

Other versions of Stairway To Heaven Ukulele

Stairway to heaven ukuleleChords

Almost there ...

Sign in to get your own page with links to favourite songs and more. You are just one click away...

Login with Facebook Login with Google