Log in

One click and you are in

Login with Facebook Login with Google

Why sign up and log in

Guitar Tabs Explorer
Led Zeppelin guitar tabs for Stairway to heaven

Intro

Difficulty: Easy

-------------------------------------------------------------------------------
              Led Zeppelin - Stairway to Heaven (Easy Version)
-------------------------------------------------------------------------------

E|-----------5--7--------7--8--------8--2--------2--0-----------0-------------------|
B|--------5--------5-----------5-----------3-----------1-----1-----1-------0--1--1--|
G|-----5--------------5-----------5-----------2-----------2-----------2----0--2--2--|
D|--7-------------------------------------------------------------------------------|
A|-------------------------------------------------------------------------2--0--0--|
E|----------------------------------------------------------------------------------|


************************************

| /   slide up
| \   slide down
| h   hammer-on
| p   pull-off
| ~   vibrato
| +   harmonic
| x   Mute note
| b   Bend
| pb  Pre-bend
| br  Bend release
| pbr Pre-bend release
| brb Bend release bend

************************************

Other versions of Stairway To Heaven

Stairway to heavenChords
Stairway to heaven (Ver. 2)Chords
Stairway to heaven (Ver. 3)Chords
Stairway to heaven (Ver. 4)Chords
Stairway to heaven (Ver. 5)Chords
Stairway to heaven acousticChords
Stairway to heavenTabs
Stairway to heaven (Ver. 2)Tabs
Stairway to heaven (Ver. 3)Tabs
Stairway to heaven easyTabs

Almost there ...

Sign in to get your own page with links to favourite songs and more. You are just one click away...

Login with Facebook Login with Google