Search tabs and chords

Search for song, artist or band

Log in

One click and you are in

Login with Facebook Login with Google

Why sign up and log in

Guitar Tabs Explorer
Led Zeppelin guitar tabs for Stairway to heaven intro

Guitar tabs

E|--------5--7------7--8-------8--|
B|------5-------5---------5-------|
G|----5-----------5---------5-----|
D|--7--------6---------5----------|
A|--------------------------------|
E|--------------------------------|


E|--2-----2--0---------0-----|-----------|
B|----3--------1---1-----1---|--0--1--1--|
G|------2--------2---------2-|--0--2--2--|
D|--4--------3---------------|-----------|
A|---------------------------|--2--0--0--|
E|---------------------------|-----------|

Other versions of Stairway To Heaven Intro

Stairway to heavenChords
Stairway to heaven (Ver. 2)Chords
Stairway to heaven (Ver. 3)Chords
Stairway soloTabs
Stairway to heavenTabs
Stairway to heaven - soloTabs
Stairway to heaven (Ver. 2)Tabs
Stairway to heaven easyTabs
Stairway to heaven intro(Ver. 2)Tabs
Stairway To Heaven Live at Madison Sqaure GardensTabs

Almost there ...

Sign in to get your own page with links to favourite songs and more. You are just one click away...

Login with Facebook Login with Google