Search tabs and chords

Search for song, artist or band

Log in

One click and you are in

Login with Facebook Login with Google

Why sign up and log in

Guitar Tabs Explorer
Led Zeppelin guitar tabs for Stairway to heaven  intro (Ver.  2)

Stairway To Heaven  intro tab by Led Zeppelin (Ver. 2)

Led Zeppelin guitar tabs for Stairway to heaven  intro (Ver.  2)

Guitar tabs

---------5--7-----7--8-----8---2-----2---0-------
-------5------5--------5---------3---------1-----
-----5----------5--------5---------2---------2---
---7--------6--------5---------4---------3-------
-------------------------------------------------
-------------------------------------------------

-----0-------------------------------------------
--1-----1----0--1--------------------------------
----------2--0--2--------------------------------
-------------------------------------------------
----------------0---0---5s8--7-------------------
-------------3-----------------------------------

(Repeat)

-------------0--2-----2--0-----0-----------------
------------------3--------1------0h1------------
-----------0--------2--------2---------2---------
---------2------0--------3-----------------------
-0--2--3--------------------------0--------0--2--
-------------------------------------------------

--------0-3-----3---3p2--2
------------0-------3----3
--------------0-----------
------0-------------------(Repeat bar 3)
-----2--------------0-----
-3------------------------
----------3---------------

---------------------2---
-------------1-----3-----
-----------0-----2-------
---------2------0--------
-0--2--3-----------------
-------------------------

(Strum F chord diagramFF open chord with no bar x3)

(Repeat all bars)

Almost there ...

Sign in to get your own page with links to favourite songs and more. You are just one click away...

Login with Facebook Login with Google